  0
SECTION
  2
HEADER
  9
$ACADVER
  1
AC1018
  9
$ACADMAINTVER
 70
     0
  9
$DWGCODEPAGE
  3
ANSI_1252
  9
$INSBASE
 10
0.0
 20
0.0
 30
0.0
  9
$EXTMIN
 10
-0.5
 20
-0.5
 30
-0.5
  9
$EXTMAX
 10
5.0
 20
5.0
 30
5.0
  9
$LIMMIN
 10
-0.5
 20
-0.5
  9
$LIMMAX
 10
5.0
 20
5.0
  9
$ORTHOMODE
 70
     0
  9
$REGENMODE
 70
     1
  9
$FILLMODE
 70
     1
  9
$QTEXTMODE
 70
     0
  9
$MIRRTEXT
 70
     1
  9
$LTSCALE
 40
1.0
  9
$ATTMODE
 70
     1
  9
$TEXTSIZE
 40
0.2
  9
$TRACEWID
 40
0.05
  9
$TEXTSTYLE
  7
Standard
  9
$CLAYER
  8
0
  9
$CELTYPE
  6
ByLayer
  9
$CECOLOR
 62
   256
  9
$CELTSCALE
 40
1.0
  9
$DISPSILH
 70
     0
  9
$DIMSCALE
 40
1.0
  9
$DIMASZ
 40
0.18
  9
$DIMEXO
 40
0.0625
  9
$DIMDLI
 40
0.38
  9
$DIMRND
 40
0.0
  9
$DIMDLE
 40
0.0
  9
$DIMEXE
 40
0.18
  9
$DIMTP
 40
0.0
  9
$DIMTM
 40
0.0
  9
$DIMTXT
 40
0.18
  9
$DIMCEN
 40
0.09
  9
$DIMTSZ
 40
0.0
  9
$DIMTOL
 70
     0
  9
$DIMLIM
 70
     0
  9
$DIMTIH
 70
     1
  9
$DIMTOH
 70
     1
  9
$DIMSE1
 70
     0
  9
$DIMSE2
 70
     0
  9
$DIMTAD
 70
     0
  9
$DIMZIN
 70
     0
  9
$DIMBLK
  1

  9
$DIMASO
 70
     1
  9
$DIMSHO
 70
     1
  9
$DIMPOST
  1

  9
$DIMAPOST
  1

  9
$DIMALT
 70
     0
  9
$DIMALTD
 70
     2
  9
$DIMALTF
 40
25.4
  9
$DIMLFAC
 40
1.0
  9
$DIMTOFL
 70
     0
  9
$DIMTVP
 40
0.0
  9
$DIMTIX
 70
     0
  9
$DIMSOXD
 70
     0
  9
$DIMSAH
 70
     0
  9
$DIMBLK1
  1

  9
$DIMBLK2
  1

  9
$DIMSTYLE
  2
Standard
  9
$DIMCLRD
 70
     0
  9
$DIMCLRE
 70
     0
  9
$DIMCLRT
 70
     0
  9
$DIMTFAC
 40
1.0
  9
$DIMGAP
 40
0.09
  9
$DIMJUST
 70
     0
  9
$DIMSD1
 70
     0
  9
$DIMSD2
 70
     0
  9
$DIMTOLJ
 70
     1
  9
$DIMTZIN
 70
     0
  9
$DIMALTZ
 70
     0
  9
$DIMALTTZ
 70
     0
  9
$DIMUPT
 70
     0
  9
$DIMDEC
 70
     4
  9
$DIMTDEC
 70
     4
  9
$DIMALTU
 70
     2
  9
$DIMALTTD
 70
     2
  9
$DIMTXSTY
  7
Standard
  9
$DIMAUNIT
 70
     0
  9
$DIMADEC
 70
     0
  9
$DIMALTRND
 40
0.0
  9
$DIMAZIN
 70
     0
  9
$DIMDSEP
 70
    46
  9
$DIMATFIT
 70
     3
  9
$DIMFRAC
 70
     0
  9
$DIMLDRBLK
  1

  9
$DIMLUNIT
 70
     2
  9
$DIMLWD
 70
    -2
  9
$DIMLWE
 70
    -2
  9
$DIMTMOVE
 70
     0
  9
$LUNITS
 70
     2
  9
$LUPREC
 70
     4
  9
$SKETCHINC
 40
0.1
  9
$FILLETRAD
 40
0.5
  9
$AUNITS
 70
     0
  9
$AUPREC
 70
     0
  9
$MENU
  1
.
  9
$ELEVATION
 40
0.0
  9
$PELEVATION
 40
0.0
  9
$THICKNESS
 40
0.0
  9
$LIMCHECK
 70
     0
  9
$CHAMFERA
 40
0.0
  9
$CHAMFERB
 40
0.0
  9
$CHAMFERC
 40
0.0
  9
$CHAMFERD
 40
0.0
  9
$SKPOLY
 70
     0
  9
$TDCREATE
 40
2458075.514115706
  9
$TDUCREATE
 40
2458075.47244904
  9
$TDUPDATE
 40
2458075.514116146
  9
$TDUUPDATE
 40
2458075.472449479
  9
$TDINDWG
 40
0.0000000116
  9
$TDUSRTIMER
 40
0.0000000116
  9
$USRTIMER
 70
     1
  9
$ANGBASE
 50
0.0
  9
$ANGDIR
 70
     0
  9
$PDMODE
 70
     0
  9
$PDSIZE
 40
0.0
  9
$PLINEWID
 40
0.0
  9
$SPLFRAME
 70
     0
  9
$SPLINETYPE
 70
     6
  9
$SPLINESEGS
 70
     8
  9
$HANDSEED
  5
162
  9
$SURFTAB1
 70
     6
  9
$SURFTAB2
 70
     6
  9
$SURFTYPE
 70
     6
  9
$SURFU
 70
     6
  9
$SURFV
 70
     6
  9
$UCSBASE
  2

  9
$UCSNAME
  2

  9
$UCSORG
 10
0.0
 20
0.0
 30
0.0
  9
$UCSXDIR
 10
1.0
 20
0.0
 30
0.0
  9
$UCSYDIR
 10
0.0
 20
1.0
 30
0.0
  9
$UCSORTHOREF
  2

  9
$UCSORTHOVIEW
 70
     0
  9
$UCSORGTOP
 10
0.0
 20
0.0
 30
0.0
  9
$UCSORGBOTTOM
 10
0.0
 20
0.0
 30
0.0
  9
$UCSORGLEFT
 10
0.0
 20
0.0
 30
0.0
  9
$UCSORGRIGHT
 10
0.0
 20
0.0
 30
0.0
  9
$UCSORGFRONT
 10
0.0
 20
0.0
 30
0.0
  9
$UCSORGBACK
 10
0.0
 20
0.0
 30
0.0
  9
$PUCSBASE
  2

  9
$PUCSNAME
  2

  9
$PUCSORG
 10
0.0
 20
0.0
 30
0.0
  9
$PUCSXDIR
 10
1.0
 20
0.0
 30
0.0
  9
$PUCSYDIR
 10
0.0
 20
1.0
 30
0.0
  9
$PUCSORTHOREF
  2

  9
$PUCSORTHOVIEW
 70
     0
  9
$PUCSORGTOP
 10
0.0
 20
0.0
 30
0.0
  9
$PUCSORGBOTTOM
 10
0.0
 20
0.0
 30
0.0
  9
$PUCSORGLEFT
 10
0.0
 20
0.0
 30
0.0
  9
$PUCSORGRIGHT
 10
0.0
 20
0.0
 30
0.0
  9
$PUCSORGFRONT
 10
0.0
 20
0.0
 30
0.0
  9
$PUCSORGBACK
 10
0.0
 20
0.0
 30
0.0
  9
$USERI1
 70
     0
  9
$USERI2
 70
     0
  9
$USERI3
 70
     0
  9
$USERI4
 70
     0
  9
$USERI5
 70
     0
  9
$USERR1
 40
0.0
  9
$USERR2
 40
0.0
  9
$USERR3
 40
0.0
  9
$USERR4
 40
0.0
  9
$USERR5
 40
0.0
  9
$WORLDVIEW
 70
     1
  9
$SHADEDGE
 70
     3
  9
$SHADEDIF
 70
    70
  9
$TILEMODE
 70
     1
  9
$MAXACTVP
 70
    64
  9
$PINSBASE
 10
0.0
 20
0.0
 30
0.0
  9
$PLIMCHECK
 70
     0
  9
$PEXTMIN
 10
-0.5
 20
-0.5
 30
-0.5
  9
$PEXTMAX
 10
5.0
 20
5.0
 30
5.0
  9
$PLIMMIN
 10
-0.5
 20
-0.5
  9
$PLIMMAX
 10
5.0
 20
5.0
  9
$UNITMODE
 70
     0
  9
$VISRETAIN
 70
     1
  9
$PLINEGEN
 70
     0
  9
$PSLTSCALE
 70
     1
  9
$TREEDEPTH
 70
  3020
  9
$CMLSTYLE
  2
Standard
  9
$CMLJUST
 70
     0
  9
$CMLSCALE
 40
1.0
  9
$PROXYGRAPHICS
 70
     1
  9
$MEASUREMENT
 70
     1
  9
$CELWEIGHT
370
    18
  9
$ENDCAPS
280
     0
  9
$JOINSTYLE
280
     0
  9
$LWDISPLAY
290
     1
  9
$INSUNITS
 70
     4
  9
$HYPERLINKBASE
  1

  9
$STYLESHEET
  1

  9
$XEDIT
290
     1
  9
$CEPSNTYPE
380
     0
  9
$PSTYLEMODE
290
     1
  9
$FINGERPRINTGUID
  2
{F5AB78EA-88E2-4243-9FFA-729BAFAF342D}
  9
$VERSIONGUID
  2
{FAEB1C32-E019-11D5-929B-00C0DF256EC4}
  9
$EXTNAMES
290
     1
  9
$PSVPSCALE
 40
0.0
  9
$OLESTARTUP
290
     0
  9
$SORTENTS
280
   127
  9
$INDEXCTL
280
     0
  9
$HIDETEXT
280
     1
  9
$XCLIPFRAME
290
     0
  9
$HALOGAP
280
     0
  9
$OBSCOLOR
 70
   257
  9
$OBSLTYPE
280
     0
  9
$INTERSECTIONDISPLAY
280
     0
  9
$INTERSECTIONCOLOR
 70
   257
  9
$DIMASSOC
280
     2
  9
$PROJECTNAME
  1

  0
ENDSEC
  0
SECTION
  2
CLASSES
  0
CLASS
  1
ACDBDICTIONARYWDFLT
  2
AcDbDictionaryWithDefault
  3
ObjectDBX Classes
 90
        0
 91
        4
280
     0
281
     0
  0
CLASS
  1
VISUALSTYLE
  2
AcDbVisualStyle
  3
ObjectDBX Classes
 90
     4095
 91
        4
280
     0
281
     0
  0
CLASS
  1
MATERIAL
  2
AcDbMaterial
  3
ObjectDBX Classes
 90
     1153
 91
        4
280
     0
281
     0
  0
CLASS
  1
SCALE
  2
AcDbScale
  3
ObjectDBX Classes
 90
     1153
 91
        4
280
     0
281
     0
  0
CLASS
  1
TABLESTYLE
  2
AcDbTableStyle
  3
ObjectDBX Classes
 90
     4095
 91
        4
280
     0
281
     0
  0
CLASS
  1
MLEADERSTYLE
  2
AcDbMLeaderStyle
  3
ACDB_MLEADERSTYLE_CLASS
 90
     4095
 91
        4
280
     0
281
     0
  0
CLASS
  1
SUN
  2
AcDbSun
  3
SCENEOE
 90
     1153
 91
        4
280
     0
281
     0
  0
CLASS
  1
DICTIONARYVAR
  2
AcDbDictionaryVar
  3
ObjectDBX Classes
 90
        0
 91
        4
280
     0
281
     0
  0
CLASS
  1
CELLSTYLEMAP
  2
AcDbCellStyleMap
  3
ObjectDBX Classes
 90
     1152
 91
        4
280
     0
281
     0
  0
ENDSEC
  0
SECTION
  2
TABLES
  0
TABLE
  2
VPORT
  5
8
102
{ACAD_XDICTIONARY
360
11B
102
}
330
0
100
AcDbSymbolTable
 70
    16
  0
VPORT
  5
29
330
8
100
AcDbSymbolTableRecord
100
AcDbViewportTableRecord
  2
*Active
 70
     0
 10
0.0
 20
0.0
 11
1.0
 21
1.0
 12
181.585647
 22
161.142069
 13
0.0
 23
0.0
 14
0.5
 24
0.5
 15
0.5
 25
0.5
 16
0.0
 26
0.0
 36
1.0
 17
0.0
 27
0.0
 37
0.0
 40
254.0
 41
0.069908
 42
50.0
 43
522.685628
 44
-522.685628
 50
0.0
 51
0.0
 71
     0
 72
   100
 73
     1
 74
     3
 75
     0
 76
     0
 77
     0
 78
     0
281
     0
 65
     1
110
0.0
120
0.0
130
0.0
111
1.0
121
0.0
131
0.0
112
0.0
122
1.0
132
0.0
 79
     0
146
0.0
  0
VPORT
  5
10C
330
8
100
AcDbSymbolTableRecord
100
AcDbViewportTableRecord
  2
L1
 70
     0
 10
0.0
 20
0.0
 11
1.0
 21
1.0
 12
181.585647
 22
161.142069
 13
0.0
 23
0.0
 14
0.5
 24
0.5
 15
0.5
 25
0.5
 16
0.0
 26
0.0
 36
1.0
 17
0.0
 27
0.0
 37
0.0
 40
254.0
 41
0.069908
 42
50.0
 43
522.685628
 44
-522.685628
 50
0.0
 51
0.0
 71
     0
 72
   100
 73
     1
 74
     3
 75
     0
 76
     0
 77
     0
 78
     0
281
     0
 65
     1
110
0.0
120
0.0
130
0.0
111
1.0
121
0.0
131
0.0
112
0.0
122
1.0
132
0.0
 79
     0
146
0.0
  0
VPORT
  5
10D
330
8
100
AcDbSymbolTableRecord
100
AcDbViewportTableRecord
  2
L2
 70
     0
 10
0.0
 20
0.0
 11
0.5
 21
1.0
 12
0.0
 22
0.0
 13
0.0
 23
0.0
 14
0.5
 24
0.5
 15
0.5
 25
0.5
 16
0.0
 26
-1.0
 36
0.0
 17
0.0
 27
0.0
 37
0.0
 40
1500.38241
 41
0.011835
 42
50.0
 43
770.104354
 44
-770.104354
 50
0.0
 51
0.0
 71
     0
 72
   100
 73
     1
 74
     3
 75
     0
 76
     0
 77
     0
 78
     0
281
     0
 65
     1
110
0.0
120
0.0
130
0.0
111
1.0
121
0.0
131
0.0
112
0.0
122
1.0
132
0.0
 79
     0
146
0.0
  0
VPORT
  5
10E
330
8
100
AcDbSymbolTableRecord
100
AcDbViewportTableRecord
  2
L2
 70
     0
 10
0.5
 20
0.0
 11
1.0
 21
1.0
 12
0.0
 22
0.0
 13
0.0
 23
0.0
 14
0.5
 24
0.5
 15
0.5
 25
0.5
 16
1.0
 26
0.0
 36
0.0
 17
0.0
 27
0.0
 37
0.0
 40
1500.38241
 41
0.011835
 42
50.0
 43
760.865195
 44
-760.865195
 50
0.0
 51
0.0
 71
     0
 72
   100
 73
     1
 74
     3
 75
     0
 76
     0
 77
     0
 78
     0
281
     0
 65
     1
110
0.0
120
0.0
130
0.0
111
1.0
121
0.0
131
0.0
112
0.0
122
1.0
132
0.0
 79
     0
146
0.0
  0
VPORT
  5
10F
330
8
100
AcDbSymbolTableRecord
100
AcDbViewportTableRecord
  2
L3
 70
     0
 10
0.0
 20
0.5
 11
1.0
 21
1.0
 12
181.585647
 22
161.142069
 13
0.0
 23
0.0
 14
0.5
 24
0.5
 15
0.5
 25
0.5
 16
0.0
 26
0.0
 36
1.0
 17
0.0
 27
0.0
 37
0.0
 40
254.0
 41
0.069908
 42
50.0
 43
522.685628
 44
-522.685628
 50
0.0
 51
0.0
 71
     0
 72
   100
 73
     1
 74
     3
 75
     0
 76
     0
 77
     0
 78
     0
281
     0
 65
     1
110
0.0
120
0.0
130
0.0
111
1.0
121
0.0
131
0.0
112
0.0
122
1.0
132
0.0
 79
     0
146
0.0
  0
VPORT
  5
110
330
8
100
AcDbSymbolTableRecord
100
AcDbViewportTableRecord
  2
L3
 70
     0
 10
0.0
 20
0.0
 11
1.0
 21
0.5
 12
0.0
 22
0.0
 13
0.0
 23
0.0
 14
0.5
 24
0.5
 15
0.5
 25
0.5
 16
0.0
 26
-1.0
 36
0.0
 17
0.0
 27
0.0
 37
0.0
 40
1500.38241
 41
0.011835
 42
50.0
 43
770.104354
 44
-770.104354
 50
0.0
 51
0.0
 71
     0
 72
   100
 73
     1
 74
     3
 75
     0
 76
     0
 77
     0
 78
     0
281
     0
 65
     1
110
0.0
120
0.0
130
0.0
111
1.0
121
0.0
131
0.0
112
0.0
122
1.0
132
0.0
 79
     0
146
0.0
  0
VPORT
  5
111
330
8
100
AcDbSymbolTableRecord
100
AcDbViewportTableRecord
  2
L4
 70
     0
 10
0.0
 20
0.5
 11
0.5
 21
1.0
 12
181.585647
 22
161.142069
 13
0.0
 23
0.0
 14
0.5
 24
0.5
 15
0.5
 25
0.5
 16
0.0
 26
0.0
 36
1.0
 17
0.0
 27
0.0
 37
0.0
 40
254.0
 41
0.069908
 42
50.0
 43
522.685628
 44
-522.685628
 50
0.0
 51
0.0
 71
     0
 72
   100
 73
     1
 74
     3
 75
     0
 76
     0
 77
     0
 78
     0
281
     0
 65
     1
110
0.0
120
0.0
130
0.0
111
1.0
121
0.0
131
0.0
112
0.0
122
1.0
132
0.0
 79
     0
146
0.0
  0
VPORT
  5
112
330
8
100
AcDbSymbolTableRecord
100
AcDbViewportTableRecord
  2
L4
 70
     0
 10
0.0
 20
0.0
 11
0.5
 21
0.5
 12
0.0
 22
0.0
 13
0.0
 23
0.0
 14
0.5
 24
0.5
 15
0.5
 25
0.5
 16
0.0
 26
-1.0
 36
0.0
 17
0.0
 27
0.0
 37
0.0
 40
1500.38241
 41
0.011835
 42
50.0
 43
770.104354
 44
-770.104354
 50
0.0
 51
0.0
 71
     0
 72
   100
 73
     1
 74
     3
 75
     0
 76
     0
 77
     0
 78
     0
281
     0
 65
     1
110
0.0
120
0.0
130
0.0
111
1.0
121
0.0
131
0.0
112
0.0
122
1.0
132
0.0
 79
     0
146
0.0
  0
VPORT
  5
113
330
8
100
AcDbSymbolTableRecord
100
AcDbViewportTableRecord
  2
L4
 70
     0
 10
0.5
 20
0.0
 11
1.0
 21
0.5
 12
0.0
 22
0.0
 13
0.0
 23
0.0
 14
0.5
 24
0.5
 15
0.5
 25
0.5
 16
1.0
 26
0.0
 36
0.0
 17
0.0
 27
0.0
 37
0.0
 40
1500.38241
 41
0.011835
 42
50.0
 43
760.865195
 44
-760.865195
 50
0.0
 51
0.0
 71
     0
 72
   100
 73
     1
 74
     3
 75
     0
 76
     0
 77
     0
 78
     0
281
     0
 65
     1
110
0.0
120
0.0
130
0.0
111
1.0
121
0.0
131
0.0
112
0.0
122
1.0
132
0.0
 79
     0
146
0.0
  0
VPORT
  5
114
330
8
100
AcDbSymbolTableRecord
100
AcDbViewportTableRecord
  2
L4
 70
     0
 10
0.5
 20
0.5
 11
1.0
 21
1.0
 12
0.0
 22
0.0
 13
0.0
 23
0.0
 14
0.5
 24
0.5
 15
0.5
 25
0.5
 16
0.5773502691896258
 26
-0.5773502691896258
 36
0.5773502691896258
 17
0.0
 27
0.0
 37
0.0
 40
1470.817585
 41
0.012073
 42
50.0
 43
765.587847
 44
-765.587847
 50
0.0
 51
0.0
 71
     0
 72
   100
 73
     1
 74
     3
 75
     0
 76
     0
 77
     0
 78
     0
281
     0
 65
     1
110
0.0
120
0.0
130
0.0
111
1.0
121
0.0
131
0.0
112
0.0
122
1.0
132
0.0
 79
     0
146
0.0
  0
VPORT
  5
115
330
8
100
AcDbSymbolTableRecord
100
AcDbViewportTableRecord
  2
L6
 70
     0
 10
0.0
 20
0.5
 11
0.333333
 21
1.0
 12
0.0
 22
0.0
 13
0.0
 23
0.0
 14
0.5
 24
0.5
 15
0.5
 25
0.5
 16
0.7188730927569433
 26
-0.5850486126764433
 36
0.3754192287502549
 17
0.0
 27
0.0
 37
0.0
 40
1552.153934
 41
0.01144
 42
50.0
 43
803.552652
 44
-803.552652
 50
0.0
 51
0.0
 71
     0
 72
   100
 73
     1
 74
     3
 75
     0
 76
     0
 77
     0
 78
     0
281
     0
 65
     1
110
0.0
120
0.0
130
0.0
111
1.0
121
0.0
131
0.0
112
0.0
122
1.0
132
0.0
 79
     0
146
0.0
  0
VPORT
  5
116
330
8
100
AcDbSymbolTableRecord
100
AcDbViewportTableRecord
  2
L6
 70
     0
 10
0.0
 20
0.0
 11
0.333333
 21
0.5
 12
0.0
 22
0.0
 13
0.0
 23
0.0
 14
0.5
 24
0.5
 15
0.5
 25
0.5
 16
-1.0
 26
0.0
 36
0.0
 17
0.0
 27
0.0
 37
0.0
 40
1500.38241
 41
0.011835
 42
50.0
 43
760.865195
 44
-760.865195
 50
0.0
 51
0.0
 71
     0
 72
   100
 73
     1
 74
     3
 75
     0
 76
     0
 77
     0
 78
     0
281
     0
 65
     1
110
0.0
120
0.0
130
0.0
111
1.0
121
0.0
131
0.0
112
0.0
122
1.0
132
0.0
 79
     0
146
0.0
  0
VPORT
  5
117
330
8
100
AcDbSymbolTableRecord
100
AcDbViewportTableRecord
  2
L6
 70
     0
 10
0.333333
 20
0.5
 11
0.666667
 21
1.0
 12
181.585647
 22
161.142069
 13
0.0
 23
0.0
 14
0.5
 24
0.5
 15
0.5
 25
0.5
 16
0.0
 26
0.0
 36
1.0
 17
0.0
 27
0.0
 37
0.0
 40
254.0
 41
0.069908
 42
50.0
 43
522.685628
 44
-522.685628
 50
0.0
 51
0.0
 71
     0
 72
   100
 73
     1
 74
     3
 75
     0
 76
     0
 77
     0
 78
     0
281
     0
 65
     1
110
0.0
120
0.0
130
0.0
111
1.0
121
0.0
131
0.0
112
0.0
122
1.0
132
0.0
 79
     0
146
0.0
  0
VPORT
  5
118
330
8
100
AcDbSymbolTableRecord
100
AcDbViewportTableRecord
  2
L6
 70
     0
 10
0.333333
 20
0.0
 11
0.666667
 21
0.5
 12
0.0
 22
0.0
 13
0.0
 23
0.0
 14
0.5
 24
0.5
 15
0.5
 25
0.5
 16
0.0
 26
-1.0
 36
0.0
 17
0.0
 27
0.0
 37
0.0
 40
1500.38241
 41
0.011835
 42
50.0
 43
770.104354
 44
-770.104354
 50
0.0
 51
0.0
 71
     0
 72
   100
 73
     1
 74
     3
 75
     0
 76
     0
 77
     0
 78
     0
281
     0
 65
     1
110
0.0
120
0.0
130
0.0
111
1.0
121
0.0
131
0.0
112
0.0
122
1.0
132
0.0
 79
     0
146
0.0
  0
VPORT
  5
119
330
8
100
AcDbSymbolTableRecord
100
AcDbViewportTableRecord
  2
L6
 70
     0
 10
0.666667
 20
0.5
 11
1.0
 21
1.0
 12
0.0
 22
0.0
 13
0.0
 23
0.0
 14
0.5
 24
0.5
 15
0.5
 25
0.5
 16
0.5773502691896258
 26
-0.5773502691896258
 36
0.5773502691896258
 17
0.0
 27
0.0
 37
0.0
 40
1470.817585
 41
0.012073
 42
50.0
 43
765.587847
 44
-765.587847
 50
0.0
 51
0.0
 71
     0
 72
   100
 73
     1
 74
     3
 75
     0
 76
     0
 77
     0
 78
     0
281
     0
 65
     1
110
0.0
120
0.0
130
0.0
111
1.0
121
0.0
131
0.0
112
0.0
122
1.0
132
0.0
 79
     0
146
0.0
  0
VPORT
  5
11A
330
8
100
AcDbSymbolTableRecord
100
AcDbViewportTableRecord
  2
L6
 70
     0
 10
0.666667
 20
0.0
 11
1.0
 21
0.5
 12
0.0
 22
0.0
 13
0.0
 23
0.0
 14
0.5
 24
0.5
 15
0.5
 25
0.5
 16
1.0
 26
0.0
 36
0.0
 17
0.0
 27
0.0
 37
0.0
 40
1500.38241
 41
0.011835
 42
50.0
 43
760.865195
 44
-760.865195
 50
0.0
 51
0.0
 71
     0
 72
   100
 73
     1
 74
     3
 75
     0
 76
     0
 77
     0
 78
     0
281
     0
 65
     1
110
0.0
120
0.0
130
0.0
111
1.0
121
0.0
131
0.0
112
0.0
122
1.0
132
0.0
 79
     0
146
0.0
  0
ENDTAB
  0
TABLE
  2
LTYPE
  5
5
330
0
100
AcDbSymbolTable
 70
     6
  0
LTYPE
  5
14
330
5
100
AcDbSymbolTableRecord
100
AcDbLinetypeTableRecord
  2
ByBlock
 70
     0
  3

 72
    65
 73
     0
 40
0.0
  0
LTYPE
  5
15
330
5
100
AcDbSymbolTableRecord
100
AcDbLinetypeTableRecord
  2
ByLayer
 70
     0
  3

 72
    65
 73
     0
 40
0.0
  0
LTYPE
  5
16
330
5
100
AcDbSymbolTableRecord
100
AcDbLinetypeTableRecord
  2
Continuous
 70
     0
  3
Solid line
 72
    65
 73
     0
 40
0.0
  0
LTYPE
  5
6E
330
5
100
AcDbSymbolTableRecord
100
AcDbLinetypeTableRecord
  2
CENTER
 70
     0
  3
____ _ ____ _ ____ _ ____
 72
    65
 73
     4
 40
47.4
 49
22.0
 74
     4
 75
     0
340
0
 46
0.0
 50
0.0
 44
0.0
 45
0.0
 49
-8.5
 74
     4
 75
     0
340
0
 46
0.0
 50
0.0
 44
0.0
 45
0.0
 49
8.5
 74
     4
 75
     0
340
0
 46
0.0
 50
0.0
 44
0.0
 45
0.0
 49
-8.5
 74
     4
 75
     0
340
0
 46
0.0
 50
0.0
 44
0.0
 45
0.0
  0
LTYPE
  5
6F
330
5
100
AcDbSymbolTableRecord
100
AcDbLinetypeTableRecord
  2
DASHDOT
 70
     0
  3
_._._._._._._._._._._._._._._._.
 72
    65
 73
     4
 40
70.0
 49
31.0
 74
     4
 75
     0
340
0
 46
0.0
 50
0.0
 44
0.0
 45
0.0
 49
-13.0
 74
     4
 75
     0
340
0
 46
0.0
 50
0.0
 44
0.0
 45
0.0
 49
13.0
 74
     4
 75
     0
340
0
 46
0.0
 50
0.0
 44
0.0
 45
0.0
 49
-13.0
 74
     4
 75
     0
340
0
 46
0.0
 50
0.0
 44
0.0
 45
0.0
  0
LTYPE
  5
70
330
5
100
AcDbSymbolTableRecord
100
AcDbLinetypeTableRecord
  2
DASHED
 70
     0
  3
__ __ __ __ __ __ __ __ __
 72
    65
 73
     2
 40
25.72
 49
12.86
 74
     4
 75
     0
340
0
 46
0.0
 50
0.0
 44
0.0
 45
0.0
 49
-12.86
 74
     4
 75
     0
340
0
 46
0.0
 50
0.0
 44
0.0
 45
0.0
  0
LTYPE
  5
71
330
5
100
AcDbSymbolTableRecord
100
AcDbLinetypeTableRecord
  2
DOT
 70
     0
  3
.........................
 72
    65
 73
     2
 40
10.0
 49
0.0
 74
     4
 75
     0
340
0
 46
0.0
 50
0.0
 44
0.0
 45
0.0
 49
-10.0
 74
     4
 75
     0
340
0
 46
0.0
 50
0.0
 44
0.0
 45
0.0
  0
LTYPE
  5
72
330
5
100
AcDbSymbolTableRecord
100
AcDbLinetypeTableRecord
  2
PHANTOM
 70
     0
  3
____ _ _ ____ _ _ _____ _ _ ____
 72
    65
 73
     6
 40
50.5
 49
18.0
 74
     4
 75
     0
340
0
 46
0.0
 50
0.0
 44
0.0
 45
0.0
 49
-6.5
 74
     4
 75
     0
340
0
 46
0.0
 50
0.0
 44
0.0
 45
0.0
 49
6.5
 74
     4
 75
     0
340
0
 46
0.0
 50
0.0
 44
0.0
 45
0.0
 49
-6.5
 74
     4
 75
     0
340
0
 46
0.0
 50
0.0
 44
0.0
 45
0.0
 49
6.5
 74
     4
 75
     0
340
0
 46
0.0
 50
0.0
 44
0.0
 45
0.0
 49
-6.5
 74
     4
 75
     0
340
0
 46
0.0
 50
0.0
 44
0.0
 45
0.0
  0
ENDTAB
  0
TABLE
  2
LAYER
  5
2
330
0
100
AcDbSymbolTable
 70
     2
  0
LAYER
  5
10
330
2
100
AcDbSymbolTableRecord
100
AcDbLayerTableRecord
  2
0
 70
     0
 62
     7
  6
Continuous
370
    -3
390
F
  0
LAYER
  5
74
330
2
100
AcDbSymbolTableRecord
100
AcDbLayerTableRecord
  2
1
 70
     0
 62
     7
420
 16777215
  6
Continuous
370
    -3
390
F
  0
ENDTAB
  0
TABLE
  2
STYLE
  5
3
330
0
100
AcDbSymbolTable
 70
     1
  0
STYLE
  5
11
330
3
100
AcDbSymbolTableRecord
100
AcDbTextStyleTableRecord
  2
Standard
 70
     0
 40
0.0
 41
1.0
 50
0.0
 71
     0
 42
0.2
  3
txt
  4

  0
ENDTAB
  0
TABLE
  2
VIEW
  5
6
330
0
100
AcDbSymbolTable
 70
     0
  0
ENDTAB
  0
TABLE
  2
UCS
  5
7
330
0
100
AcDbSymbolTable
 70
     0
  0
ENDTAB
  0
TABLE
  2
APPID
  5
9
330
0
100
AcDbSymbolTable
 70
     2
  0
APPID
  5
12
330
9
100
AcDbSymbolTableRecord
100
AcDbRegAppTableRecord
  2
ACAD
 70
     0
  0
APPID
  5
15A
330
9
100
AcDbSymbolTableRecord
100
AcDbRegAppTableRecord
  2
ACAD_MLEADERVER
 70
     0
  0
ENDTAB
  0
TABLE
  2
DIMSTYLE
  5
A
330
0
100
AcDbSymbolTable
 70
     1
100
AcDbDimStyleTable
  0
DIMSTYLE
105
27
330
A
100
AcDbSymbolTableRecord
100
AcDbDimStyleTableRecord
  2
Standard
 70
     0
178
     0
340
11
  0
ENDTAB
  0
TABLE
  2
BLOCK_RECORD
  5
1
330
0
100
AcDbSymbolTable
 70
     1
  0
BLOCK_RECORD
  5
1F
330
1
100
AcDbSymbolTableRecord
100
AcDbBlockTableRecord
  2
*Model_Space
340
22
  0
BLOCK_RECORD
  5
1B
330
1
100
AcDbSymbolTableRecord
100
AcDbBlockTableRecord
  2
*Paper_Space
340
1E
  0
BLOCK_RECORD
  5
23
330
1
100
AcDbSymbolTableRecord
100
AcDbBlockTableRecord
  2
*Paper_Space0
340
26
  0
ENDTAB
  0
ENDSEC
  0
SECTION
  2
BLOCKS
  0
BLOCK
  5
20
330
1F
100
AcDbEntity
  8
0
100
AcDbBlockBegin
  2
*Model_Space
 70
     0
 10
0.0
 20
0.0
 30
0.0
  3
*Model_Space
  1

  0
ENDBLK
  5
21
330
1F
100
AcDbEntity
  8
0
100
AcDbBlockEnd
  0
BLOCK
  5
1C
330
1B
100
AcDbEntity
 67
     1
  8
0
100
AcDbBlockBegin
  2
*Paper_Space
 70
     0
 10
0.0
 20
0.0
 30
0.0
  3
*Paper_Space
  1

  0
ENDBLK
  5
1D
330
1B
100
AcDbEntity
 67
     1
  8
0
100
AcDbBlockEnd
  0
BLOCK
  5
24
330
23
100
AcDbEntity
  8
0
100
AcDbBlockBegin
  2
*Paper_Space0
 70
     0
 10
0.0
 20
0.0
 30
0.0
  3
*Paper_Space0
  1

  0
ENDBLK
  5
25
330
23
100
AcDbEntity
  8
0
100
AcDbBlockEnd
  0
ENDSEC
  0
SECTION
  2
ENTITIES
  0
LINE
  5
73
330
1F
100
AcDbEntity
  8
1
  6
Continuous
 62
     1
370
    18
100
AcDbLine
 10
115.052424
 20
205.204755
 30
0.0
 11
106.892854
 21
205.204755
 31
0.0
  0
LINE
  5
75
330
1F
100
AcDbEntity
  8
1
  6
Continuous
 62
     1
370
    18
100
AcDbLine
 10
99.176937
 20
205.204755
 30
0.0
 11
106.892854
 21
205.204755
 31
0.0
  0
LINE
  5
76
330
1F
100
AcDbEntity
  8
1
  6
Continuous
 62
     1
370
    18
100
AcDbLine
 10
133.46102
 20
205.204755
 30
0.0
 11
141.176937
 21
205.204755
 31
0.0
  0
LINE
  5
77
330
1F
100
AcDbEntity
  8
1
  6
Continuous
 62
     1
370
    18
100
AcDbLine
 10
133.46102
 20
205.204755
 30
0.0
 11
125.30145
 21
205.204755
 31
0.0
  0
LINE
  5
78
330
1F
100
AcDbEntity
  8
1
  6
Continuous
 62
     1
370
    18
100
AcDbLine
 10
125.30145
 20
205.204755
 30
0.0
 11
115.052424
 21
205.204755
 31
0.0
  0
LINE
  5
79
330
1F
100
AcDbEntity
  8
1
  6
Continuous
 62
     1
370
    13
100
AcDbLine
 10
138.176937
 20
209.620635
 30
0.0
 11
131.563294
 21
209.620635
 31
0.0
  0
LINE
  5
7A
330
1F
100
AcDbEntity
  8
1
  6
Continuous
 62
     1
370
    13
100
AcDbLine
 10
108.79058
 20
209.620635
 30
0.0
 11
102.176937
 21
209.620635
 31
0.0
  0
LINE
  5
7B
330
1F
100
AcDbEntity
  8
1
  6
Continuous
 62
     1
370
    18
100
AcDbLine
 10
102.176937
 20
210.367525
 30
0.0
 11
102.176937
 21
209.620635
 31
0.0
  0
LINE
  5
7C
330
1F
100
AcDbEntity
  8
1
  6
Continuous
 62
     1
370
    18
100
AcDbLine
 10
138.176937
 20
209.620635
 30
0.0
 11
138.176937
 21
210.269966
 31
0.0
  0
LINE
  5
7D
330
1F
100
AcDbEntity
  8
1
  6
Continuous
 62
     1
370
    18
100
AcDbLine
 10
141.176937
 20
190.004755
 30
0.0
 11
141.176937
 21
205.204755
 31
0.0
  0
LINE
  5
7E
330
1F
100
AcDbEntity
  8
1
  6
Continuous
 62
     1
370
    18
100
AcDbLine
 10
131.176937
 20
128.204755
 30
0.0
 11
131.176937
 21
190.004755
 31
0.0
  0
LINE
  5
7F
330
1F
100
AcDbEntity
  8
1
  6
Continuous
 62
     1
370
    18
100
AcDbLine
 10
109.176937
 20
190.004755
 30
0.0
 11
109.176937
 21
128.204755
 31
0.0
  0
LINE
  5
80
330
1F
100
AcDbEntity
  8
1
  6
Continuous
 62
     1
370
    18
100
AcDbLine
 10
128.976937
 20
126.004755
 30
0.0
 11
131.176937
 21
128.204755
 31
0.0
  0
LINE
  5
81
330
1F
100
AcDbEntity
  8
1
  6
Continuous
 62
     1
370
    18
100
AcDbLine
 10
109.176937
 20
128.204755
 30
0.0
 11
111.376937
 21
126.004755
 31
0.0
  0
LINE
  5
82
330
1F
100
AcDbEntity
  8
1
  6
Continuous
 62
     1
370
    18
100
AcDbLine
 10
99.176937
 20
190.004755
 30
0.0
 11
141.176937
 21
190.004755
 31
0.0
  0
LINE
  5
83
330
1F
100
AcDbEntity
  8
1
  6
Continuous
 62
     1
370
    18
100
AcDbLine
 10
109.176937
 20
128.204755
 30
0.0
 11
131.176937
 21
128.204755
 31
0.0
  0
LINE
  5
84
330
1F
100
AcDbEntity
  8
1
  6
Continuous
 62
     1
370
    18
100
AcDbLine
 10
99.176937
 20
205.204755
 30
0.0
 11
99.176937
 21
190.004755
 31
0.0
  0
LINE
  5
85
330
1F
100
AcDbEntity
  8
1
  6
Continuous
 62
     1
370
    18
100
AcDbLine
 10
111.376937
 20
126.004755
 30
0.0
 11
128.976937
 21
126.004755
 31
0.0
  0
LINE
  5
86
330
1F
100
AcDbEntity
  8
1
  6
Continuous
 62
     1
370
    18
100
AcDbLine
 10
283.281566
 20
205.204755
 30
0.0
 11
279.18089
 21
205.204755
 31
0.0
  0
LINE
  5
87
330
1F
100
AcDbEntity
  8
1
  6
Continuous
 62
     1
370
    18
100
AcDbLine
 10
279.18089
 20
205.204755
 30
0.0
 11
246.651941
 21
205.204755
 31
0.0
  0
LINE
  5
88
330
1F
100
AcDbEntity
  8
1
  6
Continuous
 62
     1
370
    18
100
AcDbLine
 10
242.551265
 20
205.204755
 30
0.0
 11
246.651941
 21
205.204755
 31
0.0
  0
LINE
  5
89
330
1F
100
AcDbEntity
  8
1
  6
Continuous
 62
     1
370
    18
100
AcDbLine
 10
242.551265
 20
205.204755
 30
0.0
 11
241.916415
 21
205.204755
 31
0.0
  0
LINE
  5
8A
330
1F
100
AcDbEntity
  8
1
  6
Continuous
 62
     1
370
    18
100
AcDbLine
 10
283.916415
 20
205.204755
 30
0.0
 11
283.281566
 21
205.204755
 31
0.0
  0
LINE
  5
8B
330
1F
100
AcDbEntity
  8
1
  6
Continuous
 62
     1
370
    18
100
AcDbLine
 10
254.116415
 20
126.004755
 30
0.0
 11
262.916415
 21
126.004755
 31
0.0
  0
LINE
  5
8C
330
1F
100
AcDbEntity
  8
1
  6
Continuous
 62
     1
370
    18
100
AcDbLine
 10
262.916415
 20
126.004755
 30
0.0
 11
271.716415
 21
126.004755
 31
0.0
  0
LINE
  5
8D
330
1F
100
AcDbEntity
  8
1
  6
Continuous
 62
     1
370
    18
100
AcDbLine
 10
273.916415
 20
128.204755
 30
0.0
 11
262.916415
 21
128.204755
 31
0.0
  0
LINE
  5
8E
330
1F
100
AcDbEntity
  8
1
  6
Continuous
 62
     1
370
    18
100
AcDbLine
 10
262.916415
 20
128.204755
 30
0.0
 11
251.916415
 21
128.204755
 31
0.0
  0
LINE
  5
8F
330
1F
100
AcDbEntity
  8
1
  6
Continuous
 62
     1
370
    13
100
AcDbLine
 10
253.600439
 20
215.651274
 30
0.0
 11
248.975437
 21
209.620635
 31
0.0
  0
LINE
  5
90
330
1F
100
AcDbEntity
  8
1
  6
Continuous
 62
     1
370
    13
100
AcDbLine
 10
276.857394
 20
209.620635
 30
0.0
 11
272.232392
 21
215.651274
 31
0.0
  0
LINE
  5
91
330
1F
100
AcDbEntity
  8
1
  6
Continuous
 62
     1
370
    18
100
AcDbLine
 10
273.112172
 20
217.4161
 30
0.0
 11
279.519616
 21
207.390335
 31
0.0
  0
LINE
  5
92
330
1F
100
AcDbEntity
  8
1
  6
Continuous
 62
     1
370
    13
100
AcDbLine
 10
248.975437
 20
209.620635
 30
0.0
 11
276.857394
 21
209.620635
 31
0.0
  0
LINE
  5
93
330
1F
100
AcDbEntity
  8
1
  6
Continuous
 62
     1
370
    18
100
AcDbLine
 10
283.916415
 20
190.004755
 30
0.0
 11
262.916415
 21
190.004755
 31
0.0
  0
LINE
  5
94
330
1F
100
AcDbEntity
  8
1
  6
Continuous
 62
     1
370
    18
100
AcDbLine
 10
262.916415
 20
190.004755
 30
0.0
 11
241.916415
 21
190.004755
 31
0.0
  0
LINE
  5
95
330
1F
100
AcDbEntity
  8
1
  6
Continuous
 62
     1
370
    18
100
AcDbLine
 10
272.416412
 20
219.890135
 30
0.0
 11
272.416398
 21
219.884791
 31
0.0
  0
LINE
  5
96
330
1F
100
AcDbEntity
  8
1
  6
Continuous
 62
     1
370
    18
100
AcDbLine
 10
253.416433
 20
219.884575
 30
0.0
 11
253.416418
 21
219.890831
 31
0.0
  0
LINE
  5
97
330
1F
100
AcDbEntity
  8
1
  6
Continuous
 62
     1
370
    18
100
AcDbLine
 10
272.416415
 20
219.869132
 30
0.0
 11
272.416415
 21
281.504755
 31
0.0
  0
LINE
  5
98
330
1F
100
AcDbEntity
  8
1
  6
Continuous
 62
     1
370
    18
100
AcDbLine
 10
283.916415
 20
190.004755
 30
0.0
 11
283.916415
 21
205.204755
 31
0.0
  0
LINE
  5
99
330
1F
100
AcDbEntity
  8
1
  6
Continuous
 62
     1
370
    18
100
AcDbLine
 10
241.916415
 20
205.204755
 30
0.0
 11
241.916415
 21
190.004755
 31
0.0
  0
LINE
  5
9A
330
1F
100
AcDbEntity
  8
1
  6
Continuous
 62
     1
370
    18
100
AcDbLine
 10
273.916415
 20
128.204755
 30
0.0
 11
273.916415
 21
190.004755
 31
0.0
  0
LINE
  5
9B
330
1F
100
AcDbEntity
  8
1
  6
Continuous
 62
     1
370
    18
100
AcDbLine
 10
251.916415
 20
190.004755
 30
0.0
 11
251.916415
 21
128.204755
 31
0.0
  0
LINE
  5
9C
330
1F
100
AcDbEntity
  8
1
  6
Continuous
 62
     1
370
    18
100
AcDbLine
 10
271.716415
 20
126.004755
 30
0.0
 11
273.916415
 21
128.204755
 31
0.0
  0
LINE
  5
9D
330
1F
100
AcDbEntity
  8
1
  6
Continuous
 62
     1
370
    18
100
AcDbLine
 10
251.916415
 20
128.204755
 30
0.0
 11
254.116415
 21
126.004755
 31
0.0
  0
LINE
  5
9E
330
1F
100
AcDbEntity
  8
1
  6
Continuous
 62
     1
370
    18
100
AcDbLine
 10
253.416415
 20
281.504755
 30
0.0
 11
253.416415
 21
219.86795
 31
0.0
  0
LINE
  5
9F
330
1F
100
AcDbEntity
  8
1
  6
Continuous
 62
     1
370
    18
100
AcDbLine
 10
246.313215
 20
207.390335
 30
0.0
 11
252.720659
 21
217.4161
 31
0.0
  0
LINE
  5
A0
330
1F
100
AcDbEntity
  8
1
  6
Continuous
 62
     1
370
    13
100
AcDbLine
 10
131.563294
 20
65.587546
 30
0.0
 11
133.46102
 21
67.911042
 31
0.0
  0
LINE
  5
A1
330
1F
100
AcDbEntity
  8
1
  6
Continuous
 62
     1
370
    13
100
AcDbLine
 10
108.79058
 20
65.587546
 30
0.0
 11
106.892854
 21
67.911042
 31
0.0
  0
LINE
  5
A2
330
1F
100
AcDbEntity
  8
1
  6
Continuous
 62
     1
370
    13
100
AcDbLine
 10
131.563294
 20
37.70559
 30
0.0
 11
133.46102
 21
35.382093
 31
0.0
  0
LINE
  5
A3
330
1F
100
AcDbEntity
  8
1
  6
Continuous
 62
     1
370
    13
100
AcDbLine
 10
108.79058
 20
37.70559
 30
0.0
 11
106.892854
 21
35.382093
 31
0.0
  0
LINE
  5
A4
330
1F
100
AcDbEntity
  8
1
  6
Continuous
 62
     1
370
    18
100
AcDbLine
 10
151.760666
 20
61.146568
 30
0.0
 11
88.760666
 21
61.146568
 31
0.0
  0
LINE
  5
A5
330
1F
100
AcDbEntity
  8
1
  6
Continuous
 62
     1
370
    18
100
AcDbLine
 10
88.760666
 20
42.146568
 30
0.0
 11
151.760666
 21
42.146568
 31
0.0
  0
ARC
  5
A6
330
1F
100
AcDbEntity
  8
1
  6
Continuous
 62
     1
370
    18
100
AcDbCircle
 10
120.260666
 20
250.004755
 30
0.0
 40
41.0
100
AcDbArc
 50
299.697389
 51
0.0
  0
ARC
  5
A7
330
1F
100
AcDbEntity
  8
1
  6
Continuous
 62
     1
370
    18
100
AcDbCircle
 10
142.926937
 20
209.620635
 30
0.0
 40
4.75
100
AcDbArc
 50
180.0
 51
248.381728
  0
ARC
  5
A8
330
1F
100
AcDbEntity
  8
1
  6
Continuous
 62
     1
370
    18
100
AcDbCircle
 10
97.426937
 20
209.620635
 30
0.0
 40
4.75
100
AcDbArc
 50
291.618272
 51
0.0
  0
CIRCLE
  5
A9
330
1F
100
AcDbEntity
  8
1
  6
Continuous
 62
     1
370
    18
100
AcDbCircle
 10
120.260666
 20
250.004755
 30
0.0
 40
22.0
  0
ARC
  5
AA
330
1F
100
AcDbEntity
  8
1
  6
Continuous
 62
     1
370
    18
100
AcDbCircle
 10
120.260666
 20
250.004755
 30
0.0
 40
41.0
100
AcDbArc
 50
0.0
 51
240.061277
  0
ARC
  5
AB
330
1F
100
AcDbEntity
  8
1
  6
Continuous
 62
     1
370
    18
100
AcDbCircle
 10
262.916415
 20
281.504755
 30
0.0
 40
9.5
100
AcDbArc
 50
0.0
 51
180.0
  0
ARC
  5
AC
330
1F
100
AcDbEntity
  8
1
  6
Continuous
 62
     1
370
    18
100
AcDbCircle
 10
120.176937
 20
51.646568
 30
0.0
 40
21.0
100
AcDbArc
 50
75.875812
 51
104.124188
  0
ARC
  5
AD
330
1F
100
AcDbEntity
  8
1
  6
Continuous
 62
     1
370
    18
100
AcDbCircle
 10
120.176937
 20
51.646568
 30
0.0
 40
21.0
100
AcDbArc
 50
255.875812
 51
284.124188
  0
ARC
  5
AE
330
1F
100
AcDbEntity
  8
1
  6
Continuous
 62
     1
370
    18
100
AcDbCircle
 10
120.176937
 20
51.646568
 30
0.0
 40
21.0
100
AcDbArc
 50
309.240387
 51
333.103749
  0
ARC
  5
AF
330
1F
100
AcDbEntity
  8
1
  6
Continuous
 62
     1
370
    18
100
AcDbCircle
 10
120.176937
 20
51.646568
 30
0.0
 40
21.0
100
AcDbArc
 50
26.896251
 51
50.759613
  0
ARC
  5
B0
330
1F
100
AcDbEntity
  8
1
  6
Continuous
 62
     1
370
    18
100
AcDbCircle
 10
120.176937
 20
51.646568
 30
0.0
 40
21.0
100
AcDbArc
 50
206.896251
 51
230.759613
  0
ARC
  5
B1
330
1F
100
AcDbEntity
  8
1
  6
Continuous
 62
     1
370
    18
100
AcDbCircle
 10
120.176937
 20
51.646568
 30
0.0
 40
21.0
100
AcDbArc
 50
129.240387
 51
153.103749
  0
ARC
  5
B2
330
1F
100
AcDbEntity
  8
1
  6
Continuous
 62
     1
370
    18
100
AcDbCircle
 10
120.176937
 20
51.646568
 30
0.0
 40
21.0
100
AcDbArc
 50
230.759613
 51
255.875812
  0
ARC
  5
B3
330
1F
100
AcDbEntity
  8
1
  6
Continuous
 62
     1
370
    18
100
AcDbCircle
 10
120.176937
 20
51.646568
 30
0.0
 40
21.0
100
AcDbArc
 50
50.759613
 51
75.875812
  0
ARC
  5
B4
330
1F
100
AcDbEntity
  8
1
  6
Continuous
 62
     1
370
    18
100
AcDbCircle
 10
120.176937
 20
51.646568
 30
0.0
 40
21.0
100
AcDbArc
 50
104.124188
 51
129.240387
  0
ARC
  5
B5
330
1F
100
AcDbEntity
  8
1
  6
Continuous
 62
     1
370
    18
100
AcDbCircle
 10
120.176937
 20
51.646568
 30
0.0
 40
21.0
100
AcDbArc
 50
284.124188
 51
309.240387
  0
ARC
  5
B6
330
1F
100
AcDbEntity
  8
1
  6
Continuous
 62
     1
370
    18
100
AcDbCircle
 10
120.176937
 20
51.646568
 30
0.0
 40
18.00000000001443
100
AcDbArc
 50
31.855692
 51
50.759613
  0
ARC
  5
B7
330
1F
100
AcDbEntity
  8
1
  6
Continuous
 62
     1
370
    18
100
AcDbCircle
 10
120.176937
 20
51.646568
 30
0.0
 40
18.00000000002408
100
AcDbArc
 50
211.855565
 51
230.759613
  0
ARC
  5
B8
330
1F
100
AcDbEntity
  8
1
  6
Continuous
 62
     1
370
    13
100
AcDbCircle
 10
120.176937
 20
54.174417
 30
0.0
 40
14.99999999999886
100
AcDbArc
 50
30.765629
 51
69.777402
  0
ARC
  5
B9
330
1F
100
AcDbEntity
  8
1
  6
Continuous
 62
     1
370
    13
100
AcDbCircle
 10
120.176937
 20
49.118719
 30
0.0
 40
15.00000000000196
100
AcDbArc
 50
210.743383
 51
249.777402
  0
ARC
  5
BA
330
1F
100
AcDbEntity
  8
1
  6
Continuous
 62
     1
370
    13
100
AcDbCircle
 10
120.176937
 20
54.174417
 30
0.0
 40
15.00000000000032
100
AcDbArc
 50
110.222598
 51
149.256617
  0
ARC
  5
BB
330
1F
100
AcDbEntity
  8
1
  6
Continuous
 62
     1
370
    18
100
AcDbCircle
 10
120.176937
 20
51.646568
 30
0.0
 40
17.99999999997878
100
AcDbArc
 50
129.240387
 51
148.144435
  0
ARC
  5
BC
330
1F
100
AcDbEntity
  8
1
  6
Continuous
 62
     1
370
    13
100
AcDbCircle
 10
120.176937
 20
49.118719
 30
0.0
 40
14.99999999999945
100
AcDbArc
 50
290.222598
 51
329.234371
  0
ARC
  5
BD
330
1F
100
AcDbEntity
  8
1
  6
Continuous
 62
     1
370
    18
100
AcDbCircle
 10
120.176937
 20
51.646568
 30
0.0
 40
17.99999999999313
100
AcDbArc
 50
309.240387
 51
328.144308
  0
ARC
  5
BE
330
1F
100
AcDbEntity
  8
1
  6
Continuous
 62
     1
370
    18
100
AcDbCircle
 10
151.760666
 20
51.646568
 30
0.0
 40
9.5
100
AcDbArc
 50
270.0
 51
90.0
  0
ARC
  5
BF
330
1F
100
AcDbEntity
  8
1
  6
Continuous
 62
     1
370
    18
100
AcDbCircle
 10
88.760666
 20
51.646568
 30
0.0
 40
9.5
100
AcDbArc
 50
90.0
 51
270.0
  0
ELLIPSE
  5
C0
330
1F
100
AcDbEntity
  8
1
  6
Continuous
 62
     1
370
    13
100
AcDbEllipse
 10
134.568027
 20
209.620635
 30
0.0
 11
0.0
 21
4.75
 31
0.0
210
0.0
220
0.0
230
1.0
 40
0.632575
 41
1.570796326794897
 42
2.764282621230045
  0
ELLIPSE
  5
C1
330
1F
100
AcDbEntity
  8
1
  6
Continuous
 62
     1
370
    13
100
AcDbEllipse
 10
125.361962
 20
209.948277
 30
0.0
 11
0.06261794998268372
 21
4.74958724441819
 31
0.0
210
0.0
220
0.0
230
1.0
 40
0.008425
 41
3.192243009123741
 42
4.143771664707179
  0
ELLIPSE
  5
C2
330
1F
100
AcDbEntity
  8
1
  6
Continuous
 62
     1
370
    13
100
AcDbEllipse
 10
114.991912
 20
209.948277
 30
0.0
 11
-0.06261794998310961
 21
4.749587244418183
 31
0.0
210
0.0
220
0.0
230
1.0
 40
0.008425
 41
2.139413642471755
 42
3.090942298055511
  0
ELLIPSE
  5
C3
330
1F
100
AcDbEntity
  8
1
  6
Continuous
 62
     1
370
    13
100
AcDbEllipse
 10
105.785847
 20
209.620635
 30
0.0
 11
0.0
 21
4.75
 31
0.0
210
0.0
220
0.0
230
1.0
 40
0.632575
 41
3.518902685949544
 42
4.71238898038469
  0
ELLIPSE
  5
C4
330
1F
100
AcDbEntity
  8
1
  6
Continuous
 62
     1
370
    13
100
AcDbEllipse
 10
100.710891
 20
215.651274
 30
0.0
 11
-4.33132472264243
 21
1.949904137906907
 31
0.0
210
0.0
220
0.0
230
1.0
 40
0.561559
 41
3.817353118777671
 42
4.659291003659934
  0
ELLIPSE
  5
C5
330
1F
100
AcDbEntity
  8
1
  6
Continuous
 62
     1
370
    13
100
AcDbEllipse
 10
107.284955
 20
219.974043
 30
0.0
 11
-0.2242588210500853
 21
-4.744703149953771
 31
0.0
210
0.0
220
0.0
230
1.0
 40
0.03016
 41
1.002835989675103
 42
1.650601086891101
  0
ELLIPSE
  5
C6
330
1F
100
AcDbEntity
  8
1
  6
Continuous
 62
     1
370
    13
100
AcDbEllipse
 10
133.065941
 20
219.966212
 30
0.0
 11
0.2118167430627278
 21
-4.745274877955787
 31
0.0
210
0.0
220
0.0
230
1.0
 40
0.028488
 41
4.636472695208815
 42
5.280426208624315
  0
ELLIPSE
  5
C7
330
1F
100
AcDbEntity
  8
1
  6
Continuous
 62
     1
370
    13
100
AcDbEllipse
 10
139.618873
 20
215.610247
 30
0.0
 11
-4.336469513118672
 21
-1.938435493327623
 31
0.0
210
0.0
220
0.0
230
1.0
 40
0.557519
 41
4.763935490840844
 42
5.60735970138553
  0
ELLIPSE
  5
C8
330
1F
100
AcDbEntity
  8
1
  6
Continuous
 62
     1
370
    13
100
AcDbEllipse
 10
120.176937
 20
229.41412
 30
0.0
 11
2.749474649814019E-14
 21
23.47058823529191
 31
0.0
210
0.0
220
0.0
230
1.0
 40
0.639098
 41
3.49454356849601
 42
4.175427460623959
  0
ELLIPSE
  5
C9
330
1F
100
AcDbEntity
  8
1
  6
Continuous
 62
     1
370
    13
100
AcDbEllipse
 10
120.176937
 20
227.798577
 30
0.0
 11
2.749474649814712E-14
 21
23.47058823529783
 31
0.0
210
0.0
220
0.0
230
1.0
 40
0.766917
 41
3.826466603709174
 42
4.166354640764435
  0
ELLIPSE
  5
CA
330
1F
100
AcDbEntity
  8
1
  6
Continuous
 62
     1
370
    13
100
AcDbEllipse
 10
120.176937
 20
227.798577
 30
0.0
 11
2.749474649818480E-14
 21
23.47058823533
 31
0.0
210
0.0
220
0.0
230
1.0
 40
0.766917
 41
2.114786456965557
 42
2.456718703470073
  0
ELLIPSE
  5
CB
330
1F
100
AcDbEntity
  8
1
  6
Continuous
 62
     1
370
    13
100
AcDbEllipse
 10
120.176937
 20
229.41412
 30
0.0
 11
2.749474649814623E-14
 21
23.47058823529707
 31
0.0
210
0.0
220
0.0
230
1.0
 40
0.639098
 41
2.107369584066435
 42
2.788641738683212
  0
ELLIPSE
  5
CC
330
1F
100
AcDbEntity
  8
1
  6
Continuous
 62
     1
370
    13
100
AcDbEllipse
 10
283.522044
 20
209.948277
 30
0.0
 11
-4.002427930259222
 21
-2.557942662195713
 31
0.0
210
0.0
220
0.0
230
1.0
 40
0.999878
 41
0.0
 42
0.951528655583791
  0
ELLIPSE
  5
CD
330
1F
100
AcDbEntity
  8
1
  6
Continuous
 62
     1
370
    13
100
AcDbEllipse
 10
245.296568
 20
209.620635
 30
0.0
 11
0.0
 21
-4.75
 31
0.0
210
0.0
220
0.0
230
1.0
 40
0.774499
 41
0.37731003235986
 42
1.570796326794924
  0
ELLIPSE
  5
CE
330
1F
100
AcDbEntity
  8
1
  6
Continuous
 62
     1
370
    18
100
AcDbEllipse
 10
242.310787
 20
209.948277
 30
0.0
 11
-4.002427930259199
 21
2.557942662195746
 31
0.0
210
0.0
220
0.0
230
1.0
 40
0.999878
 41
2.919410747755537
 42
3.141592653589141
  0
ELLIPSE
  5
CF
330
1F
100
AcDbEntity
  8
1
  6
Continuous
 62
     1
370
    13
100
AcDbEllipse
 10
242.310787
 20
209.948277
 30
0.0
 11
-4.002427930259199
 21
2.557942662195746
 31
0.0
210
0.0
220
0.0
230
1.0
 40
0.999878
 41
2.190063998005709
 42
2.919410711726316
  0
ELLIPSE
  5
D0
330
1F
100
AcDbEntity
  8
1
  6
Continuous
 62
     1
370
    13
100
AcDbEllipse
 10
248.718231
 20
219.974043
 30
0.0
 11
-4.002427930259199
 21
2.557942662195746
 31
0.0
210
0.0
220
0.0
230
1.0
 40
0.99843
 41
3.14159265358977
 42
3.789357750805773
  0
ELLIPSE
  5
D1
330
1F
100
AcDbEntity
  8
1
  6
Continuous
 62
     1
370
    13
100
AcDbEllipse
 10
277.1146
 20
219.974043
 30
0.0
 11
-4.002427930259222
 21
-2.557942662195713
 31
0.0
210
0.0
220
0.0
230
1.0
 40
0.99843
 41
5.635420209963603
 42
6.283185307179604
  0
ELLIPSE
  5
D2
330
1F
100
AcDbEntity
  8
1
  6
Continuous
 62
     1
370
    13
100
AcDbEllipse
 10
274.690775
 20
215.651274
 30
0.0
 11
-3.810446861597462
 21
2.836017403850346
 31
0.0
210
0.0
220
0.0
230
1.0
 40
0.339668
 41
0.300715937187999
 42
1.142653822070263
  0
ELLIPSE
  5
D3
330
1F
100
AcDbEntity
  8
1
  6
Continuous
 62
     1
370
    13
100
AcDbEllipse
 10
251.142056
 20
215.651274
 30
0.0
 11
3.81044686159746
 21
2.836017403850349
 31
0.0
210
0.0
220
0.0
230
1.0
 40
0.339668
 41
5.140531485109326
 42
5.982469369991583
  0
ELLIPSE
  5
D4
330
1F
100
AcDbEntity
  8
1
  6
Continuous
 62
     1
370
    13
100
AcDbEllipse
 10
280.536263
 20
209.620635
 30
0.0
 11
0.0
 21
4.75
 31
0.0
210
0.0
220
0.0
230
1.0
 40
0.774499
 41
1.570796326794897
 42
2.764282621230043
  0
ELLIPSE
  5
D5
330
1F
100
AcDbEntity
  8
1
  6
Continuous
 62
     1
370
    18
100
AcDbEllipse
 10
242.314794
 20
209.954547
 30
0.0
 11
4.002427930259141
 21
-2.557942662195841
 31
0.0
210
0.0
220
0.0
230
1.0
 40
0.999998
 41
5.2782482977837
 42
6.090977184110997
  0
ELLIPSE
  5
D6
330
1F
100
AcDbEntity
  8
1
  6
Continuous
 62
     1
370
    18
100
AcDbEllipse
 10
283.518037
 20
209.954547
 30
0.0
 11
-4.002427930259222
 21
-2.557942662195713
 31
0.0
210
0.0
220
0.0
230
1.0
 40
0.999998
 41
0.0001264068754558
 42
1.010803051199767
  0
ELLIPSE
  5
D7
330
1F
100
AcDbEntity
  8
1
  6
Continuous
 62
     1
370
    18
100
AcDbEllipse
 10
248.666418
 20
219.892969
 30
0.0
 11
4.002427930259141
 21
-2.557942662195841
 31
0.0
210
0.0
220
0.0
230
1.0
 40
1.0
 41
0.0006883982405724
 42
0.5693056456194806
  0
ELLIPSE
  5
D8
330
1F
100
AcDbEntity
  8
1
  6
Continuous
 62
     1
370
    18
100
AcDbEllipse
 10
277.166411
 20
219.892971
 30
0.0
 11
4.002427930259583
 21
2.557942662195146
 31
0.0
210
0.0
220
0.0
230
1.0
 40
1.0
 41
2.571105230105525
 42
3.141024647083766
  0
ELLIPSE
  5
D9
330
1F
100
AcDbEntity
  8
1
  6
Continuous
 62
     1
370
    13
100
AcDbEllipse
 10
114.991912
 20
31.040939
 30
0.0
 11
-0.04002104778135808
 21
4.749831398664008
 31
0.0
210
0.0
220
0.0
230
1.0
 40
0.013182
 41
4.762928265072487
 42
5.714456920656256
  0
ELLIPSE
  5
DA
330
1F
100
AcDbEntity
  8
1
  6
Continuous
 62
     1
370
    13
100
AcDbEllipse
 10
125.361962
 20
72.252196
 30
0.0
 11
-0.04002104778135808
 21
4.749831398664008
 31
0.0
210
0.0
220
0.0
230
1.0
 40
0.013182
 41
1.621335611482695
 42
2.572864267066481
  0
ELLIPSE
  5
DB
330
1F
100
AcDbEntity
  8
1
  6
Continuous
 62
     1
370
    13
100
AcDbEllipse
 10
125.361962
 20
31.040939
 30
0.0
 11
0.04002104778267433
 21
4.749831398663996
 31
0.0
210
0.0
220
0.0
230
1.0
 40
0.013182
 41
0.5687283865239658
 42
1.520257042107405
  0
ELLIPSE
  5
DC
330
1F
100
AcDbEntity
  8
1
  6
Continuous
 62
     1
370
    13
100
AcDbEllipse
 10
114.991912
 20
72.252196
 30
0.0
 11
0.04002104778267433
 21
4.749831398663996
 31
0.0
210
0.0
220
0.0
230
1.0
 40
0.013182
 41
3.710321040113762
 42
4.661849695697193
  0
ELLIPSE
  5
DD
330
1F
100
AcDbEntity
  8
1
  6
Continuous
 62
     1
370
    13
100
AcDbEllipse
 10
107.284955
 20
65.844752
 30
0.0
 11
0.1434178918175444
 21
-4.74783438088426
 31
0.0
210
0.0
220
0.0
230
1.0
 40
0.047191
 41
5.713799474736612
 42
6.137003260693279
  0
ELLIPSE
  5
DE
330
1F
100
AcDbEntity
  8
1
  6
Continuous
 62
     1
370
    13
100
AcDbEllipse
 10
133.065941
 20
65.849757
 30
0.0
 11
-0.1354512936103404
 21
-4.748068338499277
 31
0.0
210
0.0
220
0.0
230
1.0
 40
0.044575
 41
0.138885853771507
 42
0.5693088452850938
  0
ELLIPSE
  5
DF
330
1F
100
AcDbEntity
  8
1
  6
Continuous
 62
     1
370
    13
100
AcDbEllipse
 10
107.284955
 20
37.448383
 30
0.0
 11
-0.1434178918175531
 21
-4.747834380884259
 31
0.0
210
0.0
220
0.0
230
1.0
 40
0.047191
 41
3.287774700076091
 42
3.710978486032765
  0
ELLIPSE
  5
E0
330
1F
100
AcDbEntity
  8
1
  6
Continuous
 62
     1
370
    13
100
AcDbEllipse
 10
133.065941
 20
37.443378
 30
0.0
 11
0.1354512936103441
 21
-4.748068338499277
 31
0.0
210
0.0
220
0.0
230
1.0
 40
0.044575
 41
2.572283808304691
 42
3.002706799818252
  0
SPLINE
  5
E1
330
1F
100
AcDbEntity
  8
1
  6
Continuous
 62
     1
370
    13
100
AcDbSpline
210
0.0
220
0.0
230
1.0
 70
     8
 71
     3
 72
    26
 73
    22
 74
     0
 42
0.000000001
 43
0.0000000001
 40
0.0
 40
0.0
 40
0.0
 40
0.0
 40
0.1249999999999995
 40
0.1249999999999995
 40
0.2499999999999991
 40
0.2499999999999991
 40
0.3749999999999986
 40
0.3749999999999986
 40
0.4999999999999978
 40
0.4999999999999978
 40
0.6249999999999973
 40
0.6249999999999973
 40
0.6562499999999978
 40
0.6562499999999978
 40
0.6874999999999982
 40
0.6874999999999982
 40
0.7499999999999986
 40
0.7499999999999986
 40
0.8749999999999993
 40
0.8749999999999993
 40
1.0
 40
1.0
 40
1.0
 40
1.0
 10
125.3619618365974
 20
207.3903348236206
 30
0.0
 10
125.6455581541416
 20
207.4729103524041
 30
0.0
 10
125.9268865154673
 20
207.5573714330577
 30
0.0
 10
126.4849482740806
 20
207.7282742030037
 30
0.0
 10
126.7616770623054
 20
207.8147173498951
 30
0.0
 10
127.3100340167755
 20
207.9889480894637
 30
0.0
 10
127.5816565083778
 20
208.0767437312491
 30
0.0
 10
128.1190134968281
 20
208.2540615685706
 30
0.0
 10
128.3847431175658
 20
208.3435952539703
 30
0.0
 10
128.9094106451833
 20
208.5254823194611
 30
0.0
 10
129.1683458154549
 20
208.6178465919837
 30
0.0
 10
129.4872065184274
 20
208.7359724986212
 30
0.0
 10
129.5507383348317
 20
208.7597316583011
 30
0.0
 10
129.6773077235246
 20
208.8075415799813
 30
0.0
 10
129.7403758953855
 20
208.8316041676915
 30
0.0
 10
129.9286122555195
 20
208.9041851377302
 30
0.0
 10
130.052515951353
 20
208.9529820543809
 30
0.0
 10
130.4193816654104
 20
209.1008189032602
 30
0.0
 10
130.6574965843734
 20
209.2013134031289
 30
0.0
 10
131.1204424651791
 20
209.407155344506
 30
0.0
 10
131.3452785646393
 20
209.5125025231684
 30
0.0
 10
131.5632940844957
 20
209.6206350980063
 30
0.0
  0
SPLINE
  5
E2
330
1F
100
AcDbEntity
  8
1
  6
Continuous
 62
     1
370
    13
100
AcDbSpline
210
0.0
220
0.0
230
1.0
 70
     8
 71
     3
 72
    22
 73
    18
 74
     0
 42
0.000000001
 43
0.0000000001
 40
0.0
 40
0.0
 40
0.0
 40
0.0
 40
0.1249999999999999
 40
0.1249999999999999
 40
0.2499999999999998
 40
0.2499999999999998
 40
0.3749999999999998
 40
0.3749999999999998
 40
0.4999999999999998
 40
0.4999999999999998
 40
0.6249999999999998
 40
0.6249999999999998
 40
0.7499999999999998
 40
0.7499999999999998
 40
0.8749999999999999
 40
0.8749999999999999
 40
1.0
 40
1.0
 40
1.0
 40
1.0
 10
114.9919122541549
 20
207.3903348236221
 30
0.0
 10
115.4239626537961
 20
207.3960309207612
 30
0.0
 10
115.8560313604491
 20
207.3972672085328
 30
0.0
 10
116.7201836955916
 20
207.3961046443843
 30
0.0
 10
117.1522659102118
 20
207.3936855505234
 30
0.0
 10
118.0164200673262
 20
207.3885600113551
 30
0.0
 10
118.448496527489
 20
207.3858445119743
 30
0.0
 10
119.3126559582932
 20
207.3820214579241
 30
0.0
 10
119.7447389146571
 20
207.3809103770155
 30
0.0
 10
120.6089138233301
 20
207.380910015326
 30
0.0
 10
121.0410073857891
 20
207.3820207539698
 30
0.0
 10
121.9051927523311
 20
207.3858434660804
 30
0.0
 10
122.337283379168
 20
207.3885589484569
 30
0.0
 10
123.2014654132402
 20
207.3936847544718
 30
0.0
 10
123.6335567973264
 20
207.3961041300479
 30
0.0
 10
124.4977489649548
 20
207.3972674169042
 30
0.0
 10
124.9298496963087
 20
207.3960317347424
 30
0.0
 10
125.3619618365967
 20
207.3903348236225
 30
0.0
  0
SPLINE
  5
E3
330
1F
100
AcDbEntity
  8
1
  6
Continuous
 62
     1
370
    13
100
AcDbSpline
210
0.0
220
0.0
230
1.0
 70
     8
 71
     3
 72
    39
 73
    35
 74
     0
 42
0.000000001
 43
0.0000000001
 40
0.0
 40
0.0
 40
0.0
 40
0.0
 40
0.0154042466996565
 40
0.0154042466996565
 40
0.0310327507202968
 40
0.0622897587615775
 40
0.0622897587615775
 40
0.1248037748441391
 40
0.1873177909267005
 40
0.2498318070092619
 40
0.3123458230918235
 40
0.3123458230918235
 40
0.327974327112464
 40
0.327974327112464
 40
0.3436028311331046
 40
0.3436028311331046
 40
0.3748598391743855
 40
0.3748598391743855
 40
0.4373738552569469
 40
0.4373738552569469
 40
0.4998878713395083
 40
0.4998878713395083
 40
0.6249159035046308
 40
0.6249159035046308
 40
0.6561729115459113
 40
0.6718014155665514
 40
0.6718014155665514
 40
0.6874299195871916
 40
0.6874299195871916
 40
0.7499439356697534
 40
0.7499439356697534
 40
0.8749719678348765
 40
0.8749719678348765
 40
1.0
 40
1.0
 40
1.0
 40
1.0
 10
138.176936941399
 20
210.2643137359703
 30
0.0
 10
138.1769433988999
 20
210.2643033899294
 30
0.0
 10
138.1766461351453
 20
210.2647795936852
 30
0.0
 10
138.1754324195141
 20
210.2667242448023
 30
0.0
 10
138.172661444524
 20
210.2711644002687
 30
0.0
 10
138.1671128005052
 20
210.2800598151078
 30
0.0
 10
138.1523957627286
 20
210.3036811956294
 30
0.0
 10
138.1231242269895
 20
210.3507084071454
 30
0.0
 10
138.0514525780485
 20
210.4667129510928
 30
0.0
 10
137.9530293363504
 20
210.6277995366503
 30
0.0
 10
137.870172346901
 20
210.7654569166585
 30
0.0
 10
137.8131659313518
 20
210.8611637426016
 30
0.0
 10
137.8015035676886
 20
210.8807892546071
 30
0.0
 10
137.777660683458
 20
210.9210163033035
 30
0.0
 10
137.7654676723903
 20
210.9416390388736
 30
0.0
 10
137.7282090951682
 20
211.0048286502547
 30
0.0
 10
137.7025183857136
 20
211.0486240575404
 30
0.0
 10
137.6230469589578
 20
211.1849195117213
 30
0.0
 10
137.5668688557824
 20
211.2823222174049
 30
0.0
 10
137.4488911054502
 20
211.4898571497414
 30
0.0
 10
137.3870905222561
 20
211.5999903544903
 30
0.0
 10
137.1943371456464
 20
211.94926370339
 30
0.0
 10
137.0560317355847
 20
212.2071961121
 30
0.0
 10
136.8743709390141
 20
212.5615259480939
 30
0.0
 10
136.8192142679752
 20
212.6702282005184
 30
0.0
 10
136.7631691673379
 20
212.7825803505191
 30
0.0
 10
136.7256195463364
 20
212.8582990917056
 30
0.0
 10
136.7067351418104
 20
212.8966008921351
 30
0.0
 10
136.6121683953105
 20
213.0895702874274
 30
0.0
 10
136.5359485773291
 20
213.2488186298665
 30
0.0
 10
136.3067933972176
 20
213.7409076186242
 30
0.0
 10
136.1533667737634
 20
214.0880458456124
 30
0.0
 10
135.8513385195559
 20
214.8203235594102
 30
0.0
 10
135.7027267958805
 20
215.2054736084343
 30
0.0
 10
135.5595680806884
 20
215.610246698465
 30
0.0
  0
SPLINE
  5
E4
330
1F
100
AcDbEntity
  8
1
  6
Continuous
 62
     1
370
    13
100
AcDbSpline
210
0.0
220
0.0
230
1.0
 70
     8
 71
     3
 72
    35
 73
    31
 74
     0
 42
0.000000001
 43
0.0000000001
 40
0.0
 40
0.0
 40
0.0
 40
0.0
 40
0.1249053091321326
 40
0.1249053091321326
 40
0.2498106182642653
 40
0.2498106182642653
 40
0.3122632728303313
 40
0.3122632728303313
 40
0.3434896001133642
 40
0.3434896001133642
 40
0.3591027637548804
 40
0.3591027637548804
 40
0.3747159273963965
 40
0.3747159273963965
 40
0.4996212365285254
 40
0.4996212365285254
 40
0.5620738910945903
 40
0.6245265456606549
 40
0.6245265456606549
 40
0.6869792002267197
 40
0.6869792002267197
 40
0.7494318547927845
 40
0.7494318547927845
 40
0.8118845093588493
 40
0.874337163924914
 40
0.9367898184909788
 40
0.9367898184909788
 40
0.9992424730570435
 40
0.9992424730570435
 40
1.0
 40
1.0
 40
1.0
 40
1.0
 10
104.7752300355487
 20
215.6512743667713
 30
0.0
 10
104.6323617076435
 20
215.250174663027
 30
0.0
 10
104.4844057999062
 20
214.8690169037286
 30
0.0
 10
104.1843650062786
 20
214.1451371429456
 30
0.0
 10
104.0322702172637
 20
213.8024060822388
 30
0.0
 10
103.8055298073854
 20
213.3170705958815
 30
0.0
 10
103.7301839040338
 20
213.1600970779802
 30
0.0
 10
103.6181013486944
 20
212.9319569473713
 30
0.0
 10
103.5808967749742
 20
212.8571311769962
 30
0.0
 10
103.5254001745594
 20
212.7467470423512
 30
0.0
 10
103.5069366022225
 20
212.7102292167054
 30
0.0
 10
103.4702108597735
 20
212.6379834889572
 30
0.0
 10
103.451959048303
 20
212.6022755133961
 30
0.0
 10
103.28873990215
 20
212.2846100911229
 30
0.0
 10
103.1511084358893
 20
212.0284851464012
 30
0.0
 10
102.9598046831849
 20
211.6824653045283
 30
0.0
 10
102.837315123508
 20
211.4645506148842
 30
0.0
 10
102.7262639416161
 20
211.2722840935966
 30
0.0
 10
102.6216452288407
 20
211.0930929793493
 30
0.0
 10
102.5725510813821
 20
211.0100338600647
 30
0.0
 10
102.4815732079203
 20
210.8574607393401
 30
0.0
 10
102.4403248154062
 20
210.789007414403
 30
0.0
 10
102.3665208398306
 20
210.6673258794602
 30
0.0
 10
102.301404360237
 20
210.5608621681879
 30
0.0
 10
102.2304599747657
 20
210.4461450744705
 30
0.0
 10
102.2015023650683
 20
210.3996638783416
 30
0.0
 10
102.1820214215271
 20
210.3684242157011
 30
0.0
 10
102.1770188130063
 20
210.3604241316644
 30
0.0
 10
102.1769372266091
 20
210.3602935453704
 30
0.0
 10
102.1769362739881
 20
210.3602920205711
 30
0.0
 10
102.1769374410764
 20
210.3602938884156
 30
0.0
  0
SPLINE
  5
E5
330
1F
100
AcDbEntity
  8
1
  6
Continuous
 62
     1
370
    13
100
AcDbSpline
210
0.0
220
0.0
230
1.0
 70
     8
 71
     3
 72
    35
 73
    31
 74
     0
 42
0.000000001
 43
0.0000000001
 40
0.0
 40
0.0
 40
0.0
 40
0.0
 40
0.0002115517169448
 40
0.0002115517169448
 40
0.1251851077523281
 40
0.1251851077523281
 40
0.2501586637877113
 40
0.2501586637877113
 40
0.312645441805403
 40
0.312645441805403
 40
0.3438888308142489
 40
0.3438888308142489
 40
0.3751322198230948
 40
0.3751322198230948
 40
0.5001057758584769
 40
0.5001057758584769
 40
0.6250793318938593
 40
0.6250793318938593
 40
0.6563227209027046
 40
0.6563227209027046
 40
0.671944415407127
 40
0.671944415407127
 40
0.6875661099115492
 40
0.7500528879292395
 40
0.7500528879292395
 40
0.8750264439646196
 40
0.8750264439646196
 40
0.9375132219823099
 40
0.9375132219823099
 40
1.0
 40
1.0
 40
1.0
 40
1.0
 10
99.79765172977861
 20
214.4763844790738
 30
0.0
 10
99.79765238732155
 20
214.4763852326236
 30
0.0
 10
99.7976530448824
 20
214.4763859861578
 30
0.0
 10
99.79776874903611
 20
214.4765185771673
 30
0.0
 10
99.81377251539855
 20
214.4947861550489
 30
0.0
 10
99.87598098501634
 20
214.5666628928554
 30
0.0
 10
99.92219273104811
 20
214.6202724231194
 30
0.0
 10
100.0132603685409
 20
214.7281495858134
 30
0.0
 10
100.0472434410641
 20
214.7687027443906
 30
0.0
 10
100.103556654041
 20
214.8367103647377
 30
0.0
 10
100.1232434252895
 20
214.8606091992858
 30
0.0
 10
100.1641001793942
 20
214.9105227558121
 30
0.0
 10
100.1852949013906
 20
214.936567047508
 30
0.0
 10
100.2949331040224
 20
215.0722303058528
 30
0.0
 10
100.3943712229988
 20
215.1980854055875
 30
0.0
 10
100.6124941177125
 20
215.4859743214029
 30
0.0
 10
100.7312030641827
 20
215.6479907919049
 30
0.0
 10
100.8887591742669
 20
215.8756265247277
 30
0.0
 10
100.9207268206299
 20
215.9224164576682
 30
0.0
 10
100.9693010810219
 20
215.9945656696435
 30
0.0
 10
100.9856040916037
 20
216.0189550177975
 30
0.0
 10
101.0182932206964
 20
216.0682293374918
 30
0.0
 10
101.1002873672227
 20
216.1927496854692
 30
0.0
 10
101.1834697724358
 20
216.3239717826471
 30
0.0
 10
101.3840202353498
 20
216.652230636714
 30
0.0
 10
101.5189860185162
 20
216.8887614832809
 30
0.0
 10
101.7172185177747
 20
217.2732121060484
 30
0.0
 10
101.7825827626239
 20
217.4063229395387
 30
0.0
 10
101.9106944313664
 20
217.6832321430911
 30
0.0
 10
101.9734431616325
 20
217.8270294671684
 30
0.0
 10
102.0342093358168
 20
217.9766515316141
 30
0.0
  0
SPLINE
  5
E6
330
1F
100
AcDbEntity
  8
1
  6
Continuous
 62
     1
370
    13
100
AcDbSpline
210
0.0
220
0.0
230
1.0
 70
     8
 71
     3
 72
    39
 73
    35
 74
     0
 42
0.000000001
 43
0.0000000001
 40
0.0
 40
0.0
 40
0.0
 40
0.0
 40
0.0625061357557282
 40
0.0625061357557282
 40
0.1250122715114564
 40
0.1250122715114564
 40
0.2500245430229131
 40
0.2500245430229131
 40
0.2812776109007772
 40
0.2969041448397094
 40
0.2969041448397094
 40
0.3125306787786416
 40
0.3125306787786416
 40
0.3750368145343714
 40
0.3750368145343714
 40
0.5000490860458302
 40
0.5000490860458302
 40
0.6250613575572889
 40
0.6250613575572889
 40
0.6406878914962212
 40
0.6406878914962212
 40
0.6563144254351533
 40
0.6563144254351533
 40
0.6875674933130178
 40
0.6875674933130178
 40
0.7500736290687466
 40
0.7500736290687466
 40
0.8750859005802044
 40
0.8750859005802044
 40
0.9375920363359335
 40
0.9375920363359335
 40
0.968845104213798
 40
0.968845104213798
 40
1.0
 40
1.0
 40
1.0
 40
1.0
 10
138.316163534906
 20
217.9248240228677
 30
0.0
 10
138.3771360462859
 20
217.7738749802727
 30
0.0
 10
138.4402023694408
 20
217.6286961230522
 30
0.0
 10
138.5691508172253
 20
217.3489541906626
 30
0.0
 10
138.6350341951685
 20
217.2143920479165
 30
0.0
 10
138.8350883206928
 20
216.8255307618734
 30
0.0
 10
138.9716222234566
 20
216.5859845597214
 30
0.0
 10
139.1409992603425
 20
216.3087054201933
 30
0.0
 10
139.1917205469785
 20
216.2271918194668
 30
0.0
 10
139.2421692572303
 20
216.1481392920983
 30
0.0
 10
139.2757265261039
 20
216.0959806069026
 30
0.0
 10
139.2924597576899
 20
216.0701852041296
 30
0.0
 10
139.3756186732282
 20
215.9429831938635
 30
0.0
 10
139.4407400097876
 20
215.8465481764862
 30
0.0
 10
139.6308232854778
 20
215.5721190046066
 30
0.0
 10
139.7504854209356
 20
215.4089200804814
 30
0.0
 10
139.9708053634138
 20
215.1184264280168
 30
0.0
 10
140.0714881022594
 20
214.9911449689033
 30
0.0
 10
140.1715352150845
 20
214.8675240466405
 30
0.0
 10
140.1824678760313
 20
214.854061684857
 30
0.0
 10
140.2039567274979
 20
214.8276838759064
 30
0.0
 10
140.2145021722714
 20
214.8147816722146
 30
0.0
 10
140.2454616284706
 20
214.7770159483954
 30
0.0
 10
140.2652286596295
 20
214.7530562402918
 30
0.0
 10
140.3218782986726
 20
214.6847446834069
 30
0.0
 10
140.3561096247132
 20
214.6439555745541
 30
0.0
 10
140.4479285929443
 20
214.5353513874653
 30
0.0
 10
140.4946511713028
 20
214.4812310339689
 30
0.0
 10
140.5418148625021
 20
214.4268223901242
 30
0.0
 10
140.5537140193921
 20
214.4131655127075
 30
0.0
 10
140.5656549083508
 20
214.399475054317
 30
0.0
 10
140.5686503350024
 20
214.3960451464975
 30
0.0
 10
140.5726329669332
 20
214.391486018073
 30
0.0
 10
140.5736241796967
 20
214.3903521942203
 30
0.0
 10
140.5736081683548
 20
214.3903705157854
 30
0.0
  0
SPLINE
  5
E7
330
1F
100
AcDbEntity
  8
1
  6
Continuous
 62
     1
370
    13
100
AcDbSpline
210
0.0
220
0.0
230
1.0
 70
     8
 71
     3
 72
    29
 73
    25
 74
     0
 42
0.000000001
 43
0.0000000001
 40
0.0
 40
0.0
 40
0.0
 40
0.0
 40
0.1249999999999999
 40
0.1249999999999999
 40
0.2499999999999998
 40
0.2499999999999998
 40
0.3124999999999998
 40
0.3124999999999998
 40
0.3749999999999998
 40
0.3749999999999998
 40
0.4374999999999999
 40
0.4374999999999999
 40
0.4999999999999999
 40
0.5624999999999999
 40
0.5624999999999999
 40
0.6249999999999998
 40
0.6249999999999998
 40
0.6874999999999998
 40
0.6874999999999998
 40
0.7499999999999997
 40
0.7499999999999997
 40
0.8749999999999999
 40
0.8749999999999999
 40
1.0
 40
1.0
 40
1.0
 40
1.0
 10
107.4454760850563
 20
220.3455488023984
 30
0.0
 10
108.4991579843314
 20
220.1770318236038
 30
0.0
 10
109.5555617754391
 20
220.0412725703579
 30
0.0
 10
111.6728701208607
 20
219.8238854534767
 30
0.0
 10
112.733773109623
 20
219.7422386146147
 30
0.0
 10
114.3276974682883
 20
219.65064057261
 30
0.0
 10
114.8594328954253
 20
219.6252411385849
 30
0.0
 10
115.9236254727097
 20
219.5831046390954
 30
0.0
 10
116.4561090350947
 20
219.566360233776
 30
0.0
 10
117.5215711674289
 20
219.5401319128415
 30
0.0
 10
118.0541277543393
 20
219.5306502639786
 30
0.0
 10
119.1189395374276
 20
219.5179507912968
 30
0.0
 10
120.1834503404328
 20
219.5115065015511
 30
0.0
 10
121.2473957972377
 20
219.5168020946658
 30
0.0
 10
122.3110443735574
 20
219.5282668354484
 30
0.0
 10
122.8427200150916
 20
219.5370881220719
 30
0.0
 10
123.9057304507235
 20
219.5618255456148
 30
0.0
 10
124.4370649228404
 20
219.5777484583647
 30
0.0
 10
125.4993276394293
 20
219.6180657076278
 30
0.0
 10
126.030255568155
 20
219.6424666902124
 30
0.0
 10
127.622314856234
 20
219.7308015413207
 30
0.0
 10
128.6827198806346
 20
219.8099059500305
 30
0.0
 10
130.8009668979869
 20
220.0217550285716
 30
0.0
 10
131.8588077685435
 20
220.1545234586165
 30
0.0
 10
132.9150831276327
 20
220.3200924578145
 30
0.0
  0
SPLINE
  5
E8
330
1F
100
AcDbEntity
  8
1
  6
Continuous
 62
     1
370
    13
100
AcDbSpline
210
0.0
220
0.0
230
1.0
 70
     8
 71
     3
 72
    46
 73
    42
 74
     0
 42
0.000000001
 43
0.0000000001
 40
0.0
 40
0.0
 40
0.0
 40
0.0
 40
0.062500000000005
 40
0.12500000000001
 40
0.12500000000001
 40
0.1875000000000151
 40
0.1875000000000151
 40
0.2187500000000174
 40
0.2187500000000174
 40
0.2500000000000198
 40
0.2500000000000198
 40
0.2656250000000203
 40
0.2656250000000203
 40
0.2812500000000208
 40
0.3125000000000219
 40
0.3125000000000219
 40
0.3750000000000229
 40
0.3750000000000229
 40
0.4375000000000238
 40
0.4375000000000238
 40
0.4687500000000232
 40
0.4687500000000232
 40
0.4843750000000225
 40
0.4843750000000225
 40
0.5000000000000219
 40
0.5312500000000211
 40
0.5312500000000211
 40
0.5468750000000207
 40
0.5468750000000207
 40
0.5625000000000202
 40
0.6250000000000168
 40
0.6250000000000168
 40
0.7500000000000101
 40
0.7500000000000101
 40
0.7812500000000087
 40
0.7812500000000087
 40
0.8125000000000071
 40
0.8125000000000071
 40
0.875000000000005
 40
0.875000000000005
 40
1.0
 40
1.0
 40
1.0
 40
1.0
 10
102.0342093358168
 20
217.9766515316141
 30
0.0
 10
102.0779605752613
 20
218.084378418416
 30
0.0
 10
102.177925961713
 20
218.2957936445013
 30
0.0
 10
102.3024965213721
 20
218.4991819518706
 30
0.0
 10
102.4395129981156
 20
218.6984281615875
 30
0.0
 10
102.5142431454355
 20
218.7959810405482
 30
0.0
 10
102.6360178666665
 20
218.9389819624149
 30
0.0
 10
102.6783052911255
 20
218.9861727374448
 30
0.0
 10
102.7656042643016
 20
219.0787710884494
 30
0.0
 10
102.8106485867682
 20
219.124226303062
 30
0.0
 10
102.8803071031899
 20
219.1911237772367
 30
0.0
 10
102.9038968841158
 20
219.2132280524922
 30
0.0
 10
102.9516651426529
 20
219.2569031765123
 30
0.0
 10
103.0241564716747
 20
219.3215783999218
 30
0.0
 10
103.0991295101996
 20
219.3837605636076
 30
0.0
 10
103.2523114784437
 20
219.5048293597449
 30
0.0
 10
103.3587416623909
 20
219.5811545566303
 30
0.0
 10
103.5799837545198
 20
219.7250056720017
 30
0.0
 10
103.6947968013416
 20
219.7925306776858
 30
0.0
 10
103.8732536470049
 20
219.8870451740678
 30
0.0
 10
103.9337800147141
 20
219.9174196571169
 30
0.0
 10
104.0261344812814
 20
219.9612512313645
 30
0.0
 10
104.0571851042327
 20
219.9755746316957
 30
0.0
 10
104.1195873899553
 20
220.0035416931717
 30
0.0
 10
104.2137233151283
 20
220.0445117472046
 30
0.0
 10
104.3094372489542
 20
220.08255348536
 30
0.0
 10
104.4061814074772
 20
220.1186533325244
 30
0.0
 10
104.4386288599709
 20
220.1303723146444
 30
0.0
 10
104.503694116154
 20
220.1531051737279
 30
0.0
 10
104.6667930718961
 20
220.2081805278128
 30
0.0
 10
104.8320128811743
 20
220.254631721691
 30
0.0
 10
105.2322703325644
 20
220.350444174568
 30
0.0
 10
105.5040690343007
 20
220.3934579861587
 30
0.0
 10
105.8491821971257
 20
220.4231933440583
 30
0.0
 10
105.9184741683266
 20
220.4279359144807
 30
0.0
 10
106.0575796250298
 20
220.4350542237956
 30
0.0
 10
106.1274521645692
 20
220.4374276948409
 30
0.0
 10
106.3365907641179
 20
220.441056984887
 30
0.0
 10
106.4757618830919
 20
220.4388531549763
 30
0.0
 10
106.8925507866263
 20
220.4195203468515
 30
0.0
 10
107.169443706199
 20
220.3896950884517
 30
0.0
 10
107.4454760850563
 20
220.3455488023984
 30
0.0
  0
SPLINE
  5
E9
330
1F
100
AcDbEntity
  8
1
  6
Continuous
 62
     1
370
    13
100
AcDbSpline
210
0.0
220
0.0
230
1.0
 70
     8
 71
     3
 72
    42
 73
    38
 74
     0
 42
0.000000001
 43
0.0000000001
 40
0.0
 40
0.0
 40
0.0
 40
0.0
 40
0.1249999999999968
 40
0.1249999999999968
 40
0.2499999999999935
 40
0.2499999999999935
 40
0.2812499999999925
 40
0.2812499999999925
 40
0.3124999999999915
 40
0.3749999999999897
 40
0.3749999999999897
 40
0.4374999999999878
 40
0.4374999999999878
 40
0.4999999999999853
 40
0.4999999999999853
 40
0.5156249999999847
 40
0.5156249999999847
 40
0.5312499999999841
 40
0.5312499999999841
 40
0.5624999999999841
 40
0.5624999999999841
 40
0.6249999999999863
 40
0.6249999999999863
 40
0.6874999999999885
 40
0.6874999999999885
 40
0.7499999999999906
 40
0.7499999999999906
 40
0.7812499999999917
 40
0.7812499999999917
 40
0.8124999999999928
 40
0.8124999999999928
 40
0.8749999999999952
 40
0.9374999999999978
 40
0.9374999999999978
 40
0.9687499999999989
 40
0.9687499999999989
 40
1.0
 40
1.0
 40
1.0
 40
1.0
 10
132.9150831276327
 20
220.3200924578145
 30
0.0
 10
133.1911934220184
 20
220.3633721809628
 30
0.0
 10
133.4675612006582
 20
220.3921345944959
 30
0.0
 10
134.0207751466684
 20
220.4158008516327
 30
0.0
 10
134.2976218207282
 20
220.4107339940275
 30
0.0
 10
134.6439135285443
 20
220.3796043981308
 30
0.0
 10
134.7132403891713
 20
220.3721273486246
 30
0.0
 10
134.8516717278818
 20
220.3546052716984
 30
0.0
 10
135.058078591777
 20
220.3245893295617
 30
0.0
 10
135.2606842997132
 20
220.2832899756206
 30
0.0
 10
135.5272731119271
 20
220.2179848703337
 30
0.0
 10
135.6587920967441
 20
220.1802144071835
 30
0.0
 10
135.9180607157677
 20
220.0941287953909
 30
0.0
 10
136.045811295906
 20
220.0458160626287
 30
0.0
 10
136.2029654967886
 20
219.9785444979907
 30
0.0
 10
136.2342694261519
 20
219.9647456537218
 30
0.0
 10
136.296618061192
 20
219.9364493781428
 30
0.0
 10
136.3276603927855
 20
219.9219514666061
 30
0.0
 10
136.4198619139972
 20
219.8776573216646
 30
0.0
 10
136.480275198518
 20
219.8469811634494
 30
0.0
 10
136.6583638489419
 20
219.7515858955769
 30
0.0
 10
136.7728928699521
 20
219.6835060313139
 30
0.0
 10
136.9935119606031
 20
219.5386314578456
 30
0.0
 10
137.0996030980825
 20
219.4618375639074
 30
0.0
 10
137.3031345453914
 20
219.2995844796567
 30
0.0
 10
137.4005766171247
 20
219.2141267988931
 30
0.0
 10
137.5399360305011
 20
219.0793014407553
 30
0.0
 10
137.5848661889886
 20
219.0336232447147
 30
0.0
 10
137.6715944671029
 20
218.9410023093784
 30
0.0
 10
137.7134181905187
 20
218.8940347515917
 30
0.0
 10
137.8343430370975
 20
218.7512268063604
 30
0.0
 10
137.9834709295532
 20
218.5557469995866
 30
0.0
 10
138.1087315988839
 20
218.3505449655947
 30
0.0
 10
138.1936333699666
 20
218.1930213469453
 30
0.0
 10
138.2204646470177
 20
218.1398166316216
 30
0.0
 10
138.2707820492483
 20
218.0328077072457
 30
0.0
 10
138.2942897034727
 20
217.9789768507243
 30
0.0
 10
138.316163534906
 20
217.9248240228677
 30
0.0
  0
SPLINE
  5
EA
330
1F
100
AcDbEntity
  8
1
  6
Continuous
 62
     1
370
    13
100
AcDbSpline
210
0.0
220
0.0
230
1.0
 70
     8
 71
     3
 72
    35
 73
    31
 74
     0
 42
0.000000001
 43
0.0000000001
 40
0.0
 40
0.0
 40
0.0
 40
0.0
 40
0.0625000000000001
 40
0.0625000000000001
 40
0.1250000000000002
 40
0.1875000000000003
 40
0.1875000000000003
 40
0.2500000000000003
 40
0.2500000000000003
 40
0.3125000000000003
 40
0.3125000000000003
 40
0.3750000000000002
 40
0.3750000000000002
 40
0.4375000000000002
 40
0.4375000000000002
 40
0.5000000000000002
 40
0.5625000000000002
 40
0.5625000000000002
 40
0.6250000000000002
 40
0.6250000000000002
 40
0.6875000000000002
 40
0.6875000000000002
 40
0.7500000000000001
 40
0.7500000000000001
 40
0.8125000000000001
 40
0.8125000000000001
 40
0.8750000000000001
 40
0.9375000000000001
 40
0.9375000000000001
 40
1.0
 40
1.0
 40
1.0
 40
1.0
 10
133.06594072051
 20
217.4082688817089
 30
0.0
 10
132.5288265291668
 20
217.3842934995469
 30
0.0
 10
131.9917151762549
 20
217.3669526457552
 30
0.0
 10
130.9174972601026
 20
217.3434662804885
 30
0.0
 10
129.8432841352948
 20
217.3311791685884
 30
0.0
 10
128.7690785166894
 20
217.3364369984172
 30
0.0
 10
127.6948754538957
 20
217.3476687635679
 30
0.0
 10
127.1577751984263
 20
217.3562669895667
 30
0.0
 10
126.0835759139399
 20
217.3763301421003
 30
0.0
 10
125.546476880425
 20
217.3877845554709
 30
0.0
 10
124.4722786733328
 20
217.4103660014457
 30
0.0
 10
123.9351794927919
 20
217.4214767571831
 30
0.0
 10
122.8609797615101
 20
217.4404955735926
 30
0.0
 10
122.3238792031013
 20
217.4483857112363
 30
0.0
 10
121.2496758506166
 20
217.4589403547097
 30
0.0
 10
120.1754702523399
 20
217.4642457007911
 30
0.0
 10
119.1012595904055
 20
217.4577152909075
 30
0.0
 10
118.0270467495155
 20
217.4460918062113
 30
0.0
 10
117.4899392449392
 20
217.4377460233263
 30
0.0
 10
116.4157229670562
 20
217.4180889369183
 30
0.0
 10
115.8786142014849
 20
217.4067957137499
 30
0.0
 10
114.8043966585306
 20
217.3841816589448
 30
0.0
 10
114.267287887902
 20
217.3728766147358
 30
0.0
 10
113.19307170944
 20
217.3534519141115
 30
0.0
 10
112.6559643058205
 20
217.345342106992
 30
0.0
 10
111.5817521848878
 20
217.3354014451841
 30
0.0
 10
110.5075427537655
 20
217.3317479264526
 30
0.0
 10
109.4333410638783
 20
217.3461887129625
 30
0.0
 10
108.3591442654176
 20
217.3720626836104
 30
0.0
 10
107.8220483110691
 20
217.390714317733
 30
0.0
 10
107.2849552377592
 20
217.4161000701411
 30
0.0
  0
SPLINE
  5
EB
330
1F
100
AcDbEntity
  8
1
  6
Continuous
 62
     1
370
    13
100
AcDbSpline
210
0.0
220
0.0
230
1.0
 70
     8
 71
     3
 72
    46
 73
    42
 74
     0
 42
0.000000001
 43
0.0000000001
 40
0.0
 40
0.0
 40
0.0
 40
0.0
 40
0.1250000000000152
 40
0.1250000000000152
 40
0.2500000000000303
 40
0.2500000000000303
 40
0.2812500000000328
 40
0.2812500000000328
 40
0.3125000000000352
 40
0.3125000000000352
 40
0.3750000000000371
 40
0.3750000000000371
 40
0.4375000000000389
 40
0.4375000000000389
 40
0.5000000000000407
 40
0.5000000000000407
 40
0.5312500000000401
 40
0.5312500000000401
 40
0.5625000000000394
 40
0.5625000000000394
 40
0.6250000000000383
 40
0.6250000000000383
 40
0.6562500000000372
 40
0.6562500000000372
 40
0.6718750000000353
 40
0.6718750000000353
 40
0.6875000000000334
 40
0.6875000000000334
 40
0.7500000000000254
 40
0.7500000000000254
 40
0.8125000000000174
 40
0.8125000000000174
 40
0.8750000000000094
 40
0.8750000000000094
 40
0.890625000000008
 40
0.890625000000008
 40
0.9062500000000064
 40
0.9062500000000064
 40
0.9375000000000048
 40
0.9375000000000048
 40
1.0
 40
1.0
 40
1.0
 40
1.0
 10
135.5595680806884
 20
215.610246698465
 30
0.0
 10
135.5251524177133
 20
215.7469974799083
 30
0.0
 10
135.4821306892399
 20
215.8814953606695
 30
0.0
 10
135.3787490619912
 20
216.145978112901
 30
0.0
 10
135.3184166678507
 20
216.275976540131
 30
0.0
 10
135.2310107764858
 20
216.4351103894975
 30
0.0
 10
135.2129243434539
 20
216.466766082038
 30
0.0
 10
135.1754845492716
 20
216.5297079237819
 30
0.0
 10
135.1561549905254
 20
216.5609488232311
 30
0.0
 10
135.096636616514
 20
216.6533743184212
 30
0.0
 10
135.0547976844507
 20
216.713482290164
 30
0.0
 10
134.9664929332494
 20
216.8303499190758
 30
0.0
 10
134.9200294976838
 20
216.8871118991881
 30
0.0
 10
134.8219574610916
 20
216.996760786603
 30
0.0
 10
134.7703532563969
 20
217.0496519417457
 30
0.0
 10
134.6884658616665
 20
217.1254672343656
 30
0.0
 10
134.660418268353
 20
217.1501512019876
 30
0.0
 10
134.6026842225586
 20
217.1981882002551
 30
0.0
 10
134.5732490014523
 20
217.221331131809
 30
0.0
 10
134.4831502668482
 20
217.2879463519963
 30
0.0
 10
134.4207016288269
 20
217.3286198125278
 30
0.0
 10
134.3229722905878
 20
217.3830413841115
 30
0.0
 10
134.2897179039696
 20
217.400080333628
 30
0.0
 10
134.2387397257662
 20
217.4238272812496
 30
0.0
 10
134.2215640846476
 20
217.4314407395637
 30
0.0
 10
134.1868317712689
 20
217.4460331553051
 30
0.0
 10
134.1692742992064
 20
217.4530105955312
 30
0.0
 10
134.0810984143831
 20
217.4860211810176
 30
0.0
 10
134.0088577590461
 20
217.5066275903704
 30
0.0
 10
133.860855483495
 20
217.5352448561034
 30
0.0
 10
133.7868994292446
 20
217.5428978106799
 30
0.0
 10
133.6393494484857
 20
217.5457910573787
 30
0.0
 10
133.5657320787094
 20
217.5410352483759
 30
0.0
 10
133.4739603546959
 20
217.5279483043259
 30
0.0
 10
133.4556184033616
 20
217.5249739466636
 30
0.0
 10
133.4189602033523
 20
217.5183271090309
 30
0.0
 10
133.4006511775489
 20
217.5146544611558
 30
0.0
 10
133.3461415538351
 20
217.5027066764184
 30
0.0
 10
133.3102281771424
 20
217.4934805498585
 30
0.0
 10
133.2036528663789
 20
217.4624050211532
 30
0.0
 10
133.1341525501981
 20
217.4371712138704
 30
0.0
 10
133.06594072051
 20
217.4082688817089
 30
0.0
  0
SPLINE
  5
EC
330
1F
100
AcDbEntity
  8
1
  6
Continuous
 62
     1
370
    13
100
AcDbSpline
210
0.0
220
0.0
230
1.0
 70
     8
 71
     3
 72
    48
 73
    44
 74
     0
 42
0.000000001
 43
0.0000000001
 40
0.0
 40
0.0
 40
0.0
 40
0.0
 40
0.0624999999999958
 40
0.0624999999999958
 40
0.1249999999999916
 40
0.1249999999999916
 40
0.1406249999999905
 40
0.1406249999999905
 40
0.1562499999999893
 40
0.1562499999999893
 40
0.1874999999999889
 40
0.1874999999999889
 40
0.2499999999999871
 40
0.2499999999999871
 40
0.3124999999999852
 40
0.3124999999999852
 40
0.3281249999999857
 40
0.3281249999999857
 40
0.3437499999999862
 40
0.3749999999999861
 40
0.406249999999986
 40
0.406249999999986
 40
0.4218749999999867
 40
0.4218749999999867
 40
0.4374999999999873
 40
0.4374999999999873
 40
0.4999999999999871
 40
0.4999999999999871
 40
0.5624999999999869
 40
0.5624999999999869
 40
0.6249999999999867
 40
0.6249999999999867
 40
0.656249999999987
 40
0.656249999999987
 40
0.6874999999999873
 40
0.6874999999999873
 40
0.7187499999999877
 40
0.7187499999999877
 40
0.749999999999988
 40
0.749999999999988
 40
0.874999999999994
 40
0.874999999999994
 40
1.0
 40
1.0
 40
1.0
 40
1.0
 10
107.2849552377592
 20
217.4161000701411
 30
0.0
 10
107.2169435502441
 20
217.4452441521862
 30
0.0
 10
107.1478193462787
 20
217.4707250216788
 30
0.0
 10
107.0069527488661
 20
217.5128395636474
 30
0.0
 10
106.9352106459688
 20
217.5294767083494
 30
0.0
 10
106.8436114638742
 20
217.5435646282062
 30
0.0
 10
106.8251953816139
 20
217.5460457212149
 30
0.0
 10
106.7881628917652
 20
217.5503007851989
 30
0.0
 10
106.7695200407406
 20
217.5520764019652
 30
0.0
 10
106.7135133232206
 20
217.556272672915
 30
0.0
 10
106.6760661421619
 20
217.5575674318865
 30
0.0
 10
106.5635131917967
 20
217.5567223506562
 30
0.0
 10
106.4895000154375
 20
217.5498612625109
 30
0.0
 10
106.3436090324789
 20
217.5238422548675
 30
0.0
 10
106.2717307878443
 20
217.5046875457201
 30
0.0
 10
106.1832771933971
 20
217.4732990638599
 30
0.0
 10
106.1656310863495
 20
217.4666381374251
 30
0.0
 10
106.1307112139016
 20
217.4526742185609
 30
0.0
 10
106.0788221745357
 20
217.4307442678611
 30
0.0
 10
105.9947182937196
 20
217.3894696186998
 30
0.0
 10
105.9298320162051
 20
217.351775458768
 30
0.0
 10
105.8820222564242
 20
217.3218695628792
 30
0.0
 10
105.866235909964
 20
217.3116317111648
 30
0.0
 10
105.8351251417024
 20
217.2907572568743
 30
0.0
 10
105.8197764163196
 20
217.2801057166454
 30
0.0
 10
105.7440175893182
 20
217.2258364601019
 30
0.0
 10
105.6865450667064
 20
217.1792041860608
 30
0.0
 10
105.5769255570988
 20
217.0806854334928
 30
0.0
 10
105.5247832241846
 20
217.0287932701863
 30
0.0
 10
105.4252318606177
 20
216.920516215307
 30
0.0
 10
105.3778253878284
 20
216.8641281613228
 30
0.0
 10
105.3099955882367
 20
216.7765436501274
 30
0.0
 10
105.2879692143697
 20
216.7468893961571
 30
0.0
 10
105.2451929918795
 20
216.6869371377181
 30
0.0
 10
105.224417702843
 20
216.6566064505694
 30
0.0
 10
105.1840438276473
 20
216.5952784438542
 30
0.0
 10
105.1644446631012
 20
216.5642759714996
 30
0.0
 10
105.1265731377514
 20
216.501960477223
 30
0.0
 10
105.108273801623
 20
216.4706074790486
 30
0.0
 10
105.0198196079003
 20
216.3129372568647
 30
0.0
 10
104.9587004269324
 20
216.1839521508289
 30
0.0
 10
104.8538810799178
 20
215.9212122429179
 30
0.0
 10
104.8102077960469
 20
215.7874435907036
 30
0.0
 10
104.7752300355487
 20
215.6512743667713
 30
0.0
  0
SPLINE
  5
ED
330
1F
100
AcDbEntity
  8
1
  6
Continuous
 62
     1
370
    13
100
AcDbSpline
210
0.0
220
0.0
230
1.0
 70
     8
 71
     3
 72
    28
 73
    24
 74
     0
 42
0.000000001
 43
0.0000000001
 40
0.0
 40
0.0
 40
0.0
 40
0.0
 40
0.1250000000000003
 40
0.1250000000000003
 40
0.1875000000000002
 40
0.1875000000000002
 40
0.2500000000000002
 40
0.2500000000000002
 40
0.3750000000000002
 40
0.3750000000000002
 40
0.5000000000000001
 40
0.5000000000000001
 40
0.5625000000000003
 40
0.5625000000000003
 40
0.5937500000000004
 40
0.5937500000000004
 40
0.6250000000000004
 40
0.6250000000000004
 40
0.7500000000000003
 40
0.7500000000000003
 40
0.8750000000000001
 40
0.8750000000000001
 40
1.0
 40
1.0
 40
1.0
 40
1.0
 10
108.7905800062618
 20
209.6206350980061
 30
0.0
 10
109.0076394408732
 20
209.5129767277541
 30
0.0
 10
109.2317636566715
 20
209.4079292666065
 30
0.0
 10
109.5783522859806
 20
209.2537756216994
 30
0.0
 10
109.6956267201843
 20
209.2029542085535
 30
0.0
 10
109.9335726736611
 20
209.1023553230028
 30
0.0
 10
110.0538928746121
 20
209.0527259137252
 30
0.0
 10
110.4187731746425
 20
208.9056237092778
 30
0.0
 10
110.6672567411454
 20
208.8099397040298
 30
0.0
 10
111.1739693373432
 20
208.6220392925219
 30
0.0
 10
111.4321990023785
 20
208.5298151623594
 30
0.0
 10
111.8262227657303
 20
208.3930995368779
 30
0.0
 10
111.9586761447957
 20
208.3477985177611
 30
0.0
 10
112.1589376709817
 20
208.2801499534513
 30
0.0
 10
112.2259550455325
 20
208.2576511094254
 30
0.0
 10
112.3605020423718
 20
208.2127402847096
 30
0.0
 10
112.4280627528411
 20
208.190318067963
 30
0.0
 10
112.7666205503565
 20
208.0785547465834
 30
0.0
 10
113.0399393882393
 20
207.9901974060751
 30
0.0
 10
113.590812867243
 20
207.8151472950095
 30
0.0
 10
113.86836284689
 20
207.7284471783901
 30
0.0
 10
114.4272783518276
 20
207.5572818153542
 30
0.0
 10
114.7086405594842
 20
207.4728158310605
 30
0.0
 10
114.9919122541549
 20
207.3903348236221
 30
0.0
  0
SPLINE
  5
EE
330
1F
100
AcDbEntity
  8
1
  6
Continuous
 62
     1
370
    18
100
AcDbSpline
210
0.0
220
0.0
230
1.0
 70
     8
 71
     3
 72
    18
 73
    14
 74
     0
 42
0.000000001
 43
0.0000000001
 40
0.0
 40
0.0
 40
0.0
 40
0.0
 40
0.0436820107610784
 40
0.1500668575039271
 40
0.2540435930585603
 40
0.3555858157828604
 40
0.454872884586277
 40
0.5520142266962286
 40
0.6470623355750751
 40
0.7400217332441252
 40
0.8308526853385084
 40
0.919471005492515
 40
1.0
 40
1.0
 40
1.0
 40
1.0
 10
99.79562018722336
 20
214.4704833209648
 30
0.0
 10
99.85971234272404
 20
214.4365867713803
 30
0.0
 10
100.0759161567136
 20
214.3141812566198
 30
0.0
 10
100.415447703081
 20
214.0629028876341
 30
0.0
 10
100.8005291192505
 20
213.7176560723695
 30
0.0
 10
101.1372227944687
 20
213.340001154246
 30
0.0
 10
101.4261108547224
 20
212.9388409701919
 30
0.0
 10
101.6668526357035
 20
212.5194060806803
 30
0.0
 10
101.859978835763
 20
212.0875755355511
 30
0.0
 10
102.0064698810945
 20
211.6487964050382
 30
0.0
 10
102.1076083089725
 20
211.2084858440582
 30
0.0
 10
102.1648284822863
 20
210.7808256527825
 30
0.0
 10
102.1761014333234
 20
210.5010702455218
 30
0.0
 10
102.1757295748926
 20
210.3673017510677
 30
0.0
  0
SPLINE
  5
EF
330
1F
100
AcDbEntity
  8
1
  6
Continuous
 62
     1
370
    18
100
AcDbSpline
210
0.0
220
0.0
230
1.0
 70
     8
 71
     3
 72
    18
 73
    14
 74
     0
 42
0.000000001
 43
0.0000000001
 40
0.0
 40
0.0
 40
0.0
 40
0.0
 40
0.0529592458115919
 40
0.1472757872555164
 40
0.2426064410122545
 40
0.338633789754441
 40
0.4351490977947307
 40
0.5320096756323311
 40
0.629113796246675
 40
0.7363590727554293
 40
0.8411649132100492
 40
0.9434269581150562
 40
1.0
 40
1.0
 40
1.0
 40
1.0
 10
138.1824752405973
 20
210.2698981269523
 30
0.0
 10
138.1800777846417
 20
210.3581702566722
 30
0.0
 10
138.1815922868682
 20
210.6030491764187
 30
0.0
 10
138.2279403279213
 20
211.0051198169411
 30
0.0
 10
138.3242577635807
 20
211.4710197017664
 30
0.0
 10
138.4693476536549
 20
211.928342638603
 30
0.0
 10
138.6605360106228
 20
212.371026277223
 30
0.0
 10
138.8966189160719
 20
212.7936261732522
 30
0.0
 10
139.1847509044662
 20
213.2045411783277
 30
0.0
 10
139.5239555284535
 20
213.5927415928738
 30
0.0
 10
139.9112559615731
 20
213.945052211102
 30
0.0
 10
140.2639904709742
 20
214.2081460837663
 30
0.0
 10
140.4927202200648
 20
214.3401457747811
 30
0.0
 10
140.5760796464384
 20
214.3843707778182
 30
0.0
  0
SPLINE
  5
F0
330
1F
100
AcDbEntity
  8
1
  6
Continuous
 62
     1
370
    18
100
AcDbSpline
210
0.0
220
0.0
230
1.0
 70
     8
 71
     3
 72
     8
 73
     4
 74
     0
 42
0.000000001
 43
0.0000000001
 40
0.0
 40
0.0
 40
0.0
 40
0.0
 40
1.0
 40
1.0
 40
1.0
 40
1.0
 10
246.3132147167486
 20
207.3903348236206
 30
-0.0000000000000001
 10
246.3170540551327
 20
207.3963422589746
 30
-0.0000000000000001
 10
246.3209195617653
 20
207.4023596739478
 30
-0.0000000000000001
 10
246.3248116120542
 20
207.4083867238282
 30
-0.0000000000000001
  0
SPLINE
  5
F1
330
1F
100
AcDbEntity
  8
1
  6
Continuous
 62
     1
370
    13
100
AcDbSpline
210
0.0
220
0.0
230
1.0
 70
     8
 71
     3
 72
    26
 73
    22
 74
     0
 42
0.000000001
 43
0.0000000001
 40
0.0
 40
0.0
 40
0.0
 40
0.0
 40
0.1169698385199021
 40
0.1169698385199021
 40
0.2431170044456296
 40
0.2431170044456296
 40
0.3692641703713571
 40
0.3692641703713571
 40
0.4954113362970843
 40
0.4954113362970843
 40
0.6215585022228118
 40
0.6215585022228118
 40
0.6530952937042438
 40
0.6530952937042438
 40
0.6846320851856758
 40
0.6846320851856758
 40
0.7477056681485406
 40
0.7477056681485406
 40
0.8738528340742703
 40
0.8738528340742703
 40
1.0
 40
1.0
 40
1.0
 40
1.0
 10
246.3248116385392
 20
207.4083867648417
 30
-0.0000000000000001
 10
246.3744179694907
 20
207.4852048431682
 30
-0.0000000000000001
 10
246.4283362935738
 20
207.5635881033366
 30
-0.0000000000000001
 10
246.5509811677724
 20
207.7282742030037
 30
-0.0000000000000001
 10
246.6205500433161
 20
207.8147173498951
 30
-0.0000000000000001
 10
246.7736745552947
 20
207.9889480894637
 30
-0.0000000000000001
 10
246.8572392647022
 20
208.0767437312492
 30
-0.0000000000000001
 10
247.0403417290813
 20
208.2540615685706
 30
-0.0000000000000001
 10
247.1398827525774
 20
208.3435952539704
 30
0.0000000000000008
 10
247.3565696062347
 20
208.5254823194611
 30
0.0000000000000008
 10
247.4737128712047
 20
208.6178465919838
 30
0.0000000000000008
 10
247.6319378516431
 20
208.7359724986212
 30
0.0000000000000008
 10
247.6641719304513
 20
208.7597316583012
 30
0.0000000000000008
 10
247.7298356738534
 20
208.8075415799814
 30
0.0000000000000008
 10
247.7632819797408
 20
208.8316041676915
 30
0.0000000000000008
 10
247.8653270612191
 20
208.9041851377302
 30
0.0000000000000009
 10
247.9354687061595
 20
208.9529820543809
 30
0.0000000000000009
 10
248.1522126456731
 20
209.1008189032602
 30
0.0000000000000009
 10
248.3051310264598
 20
209.2013134031289
 30
0.0000000000000009
 10
248.6277144652155
 20
209.407155344506
 30
-0.0000000000000009
 10
248.7973719973589
 20
209.5125025231685
 30
-0.0000000000000009
 10
248.9754371598054
 20
209.6206350980063
 30
-0.0000000000000009
  0
SPLINE
  5
F2
330
1F
100
AcDbEntity
  8
1
  6
Continuous
 62
     1
370
    13
100
AcDbSpline
210
0.0
220
0.0
230
1.0
 70
     8
 71
     3
 72
    48
 73
    44
 74
     0
 42
0.000000001
 43
0.0000000001
 40
0.0
 40
0.0
 40
0.0
 40
0.0
 40
0.1250000000000064
 40
0.1250000000000064
 40
0.2500000000000127
 40
0.2500000000000127
 40
0.2812500000000137
 40
0.2812500000000137
 40
0.3125000000000147
 40
0.3125000000000147
 40
0.3750000000000147
 40
0.3750000000000147
 40
0.4375000000000148
 40
0.4375000000000148
 40
0.5000000000000149
 40
0.5000000000000149
 40
0.5312500000000145
 40
0.5312500000000145
 40
0.5625000000000143
 40
0.5625000000000143
 40
0.6250000000000151
 40
0.6250000000000151
 40
0.6562500000000154
 40
0.6562500000000154
 40
0.6718750000000148
 40
0.6718750000000148
 40
0.6875000000000141
 40
0.6875000000000141
 40
0.7187500000000128
 40
0.7187500000000128
 40
0.7500000000000114
 40
0.7500000000000114
 40
0.8125000000000069
 40
0.8125000000000069
 40
0.8750000000000023
 40
0.8750000000000023
 40
0.8906250000000016
 40
0.8906250000000016
 40
0.9062500000000008
 40
0.9062500000000008
 40
0.9375000000000001
 40
0.9375000000000001
 40
1.0
 40
1.0
 40
1.0
 40
1.0
 10
253.600438704272
 20
215.6512743667714
 30
-0.0000000000000006
 10
253.5426136125694
 20
215.7874385317948
 30
-0.0000000000000006
 10
253.488373839539
 20
215.9212777456484
 30
-0.0000000000000006
 10
253.3871925941488
 20
216.1842951230362
 30
-0.0000000000000006
 10
253.3402571523954
 20
216.3134874709061
 30
-0.0000000000000006
 10
253.2859707955807
 20
216.4714957270751
 30
-0.0000000000000006
 10
253.2753313089431
 20
216.5029202755006
 30
-0.0000000000000006
 10
253.2544768471433
 20
216.5653865249795
 30
-0.0000000000000006
 10
253.2442927782121
 20
216.5963367988829
 30
-0.0000000000000006
 10
253.2145596089997
 20
216.6879075855634
 30
-0.0000000000000006
 10
253.1957779217029
 20
216.7474129235155
 30
-0.0000000000000006
 10
253.160043986302
 20
216.8629996482854
 30
-0.0000000000000006
 10
253.1430928498528
 20
216.9190833992033
 30
-0.0000000000000006
 10
253.110702844776
 20
217.0272853714255
 30
-0.0000000000000006
 10
253.0952658919231
 20
217.0794079042967
 30
-0.0000000000000006
 10
253.0729237366093
 20
217.1539864751552
 30
-0.0000000000000006
 10
253.0656003869646
 20
217.1782765984833
 30
-0.0000000000000006
 10
253.0511976858448
 20
217.2253535100502
 30
-0.0000000000000006
 10
253.0441601456803
 20
217.248003276776
 30
-0.0000000000000006
 10
253.02341174047
 20
217.3131006849533
 30
-0.0000000000000006
 10
253.0100701072444
 20
217.3527106558921
 30
-0.0000000000000006
 10
252.9902089365802
 20
217.4054705655116
 30
-0.0000000000000006
 10
252.9836126054961
 20
217.4219446660419
 30
-0.0000000000000006
 10
252.9736685303576
 20
217.4448307679454
 30
-0.0000000000000006
 10
252.9703454762059
 20
217.4521550288237
 30
-0.0000000000000006
 10
252.9636670637038
 20
217.4661652195385
 30
-0.0000000000000006
 10
252.9603139944339
 20
217.472844822245
 30
-0.0000000000000006
 10
252.95024936659
 20
217.4917628944248
 30
-0.0000000000000006
 10
252.9435112398801
 20
217.502926124473
 30
-0.0000000000000006
 10
252.9298612189021
 20
217.5222433351016
 30
-0.0000000000000006
 10
252.9229417729204
 20
217.5304041557112
 30
-0.0000000000000006
 10
252.9017952944246
 20
217.5501556400613
 30
-0.0000000000000006
 10
252.8874538089352
 20
217.5567634390857
 30
-0.0000000000000006
 10
252.8576151714088
 20
217.5578153634689
 30
-0.0000000000000006
 10
252.8421193327524
 20
217.5522589549705
 30
-0.0000000000000006
 10
252.8217561551992
 20
217.5383322878146
 30
-0.0000000000000006
 10
252.8176343621749
 20
217.535198003595
 30
-0.0000000000000006
 10
252.8092876098204
 20
217.528247489229
 30
-0.0000000000000006
 10
252.8050613040697
 20
217.5244288113548
 30
-0.0000000000000006
 10
252.7923080104686
 20
217.5120647960571
 30
-0.0000000000000006
 10
252.7836780729678
 20
217.5025905920671
 30
-0.0000000000000006
 10
252.7573801154334
 20
217.4708472350636
 30
-0.0000000000000006
 10
252.7393008664361
 20
217.4452696225434
 30
-0.0000000000000006
 10
252.7206586712917
 20
217.4161000701411
 30
-0.0000000000000006
  0
SPLINE
  5
F3
330
1F
100
AcDbEntity
  8
1
  6
Continuous
 62
     1
370
    13
100
AcDbSpline
210
0.0
220
0.0
230
1.0
 70
     8
 71
     3
 72
    48
 73
    44
 74
     0
 42
0.000000001
 43
0.0000000001
 40
0.0
 40
0.0
 40
0.0
 40
0.0
 40
0.0624999999999958
 40
0.0624999999999958
 40
0.1249999999999916
 40
0.1249999999999916
 40
0.1406249999999905
 40
0.1406249999999905
 40
0.1562499999999893
 40
0.1562499999999893
 40
0.1874999999999889
 40
0.1874999999999889
 40
0.2499999999999871
 40
0.2499999999999871
 40
0.3124999999999852
 40
0.3124999999999852
 40
0.3281249999999857
 40
0.3281249999999857
 40
0.3437499999999862
 40
0.3749999999999861
 40
0.406249999999986
 40
0.406249999999986
 40
0.4218749999999867
 40
0.4218749999999867
 40
0.4374999999999873
 40
0.4374999999999873
 40
0.4999999999999871
 40
0.4999999999999871
 40
0.5624999999999869
 40
0.5624999999999869
 40
0.6249999999999867
 40
0.6249999999999867
 40
0.656249999999987
 40
0.656249999999987
 40
0.6874999999999873
 40
0.6874999999999873
 40
0.7187499999999877
 40
0.7187499999999877
 40
0.749999999999988
 40
0.749999999999988
 40
0.874999999999994
 40
0.874999999999994
 40
1.0
 40
1.0
 40
1.0
 40
1.0
 10
273.112172063015
 20
217.4161000701411
 30
0.0000000000000006
 10
273.0935461459184
 20
217.4452441521863
 30
0.0000000000000006
 10
273.0755295170368
 20
217.4707250216788
 30
0.0000000000000006
 10
273.0406839549703
 20
217.5128395636474
 30
0.0000000000000006
 10
273.0238576004166
 20
217.5294767083494
 30
0.0000000000000006
 10
273.0034619763965
 20
217.5435646282062
 30
0.0000000000000006
 10
272.9994142527656
 20
217.5460457212149
 30
0.0000000000000006
 10
272.9913768146967
 20
217.550300785199
 30
0.0000000000000006
 10
272.987381549378
 20
217.5520764019652
 30
0.0000000000000006
 10
272.9755233845473
 20
217.556272672915
 30
0.0000000000000006
 10
272.9677869112314
 20
217.5575674318865
 30
0.0000000000000006
 10
272.9450111589908
 20
217.5567223506562
 30
0.0000000000000006
 10
272.9306713428007
 20
217.5498612625109
 30
0.0000000000000006
 10
272.9029130555141
 20
217.5238422548676
 30
0.0000000000000006
 10
272.8894937220112
 20
217.5046875457201
 30
0.0000000000000006
 10
272.8727497089855
 20
217.4732990638599
 30
0.0000000000000006
 10
272.8693973415574
 20
217.4666381374251
 30
0.0000000000000006
 10
272.8627250719897
 20
217.4526742185609
 30
0.0000000000000006
 10
272.8527527651415
 20
217.4307442678611
 30
0.0000000000000006
 10
272.8361976701801
 20
217.3894696186999
 30
0.0000000000000006
 10
272.8227967763959
 20
217.3517754587681
 30
0.0000000000000006
 10
272.8126089159924
 20
217.3218695628792
 30
0.0000000000000006
 10
272.8091915786171
 20
217.3116317111648
 30
0.0000000000000006
 10
272.8023403484985
 20
217.2907572568744
 30
0.0000000000000006
 10
272.7989013214256
 20
217.2801057166455
 30
0.0000000000000006
 10
272.7816104516584
 20
217.2258364601019
 30
0.0000000000000006
 10
272.767463773622
 20
217.1792041860608
 30
0.0000000000000006
 10
272.737945511733
 20
217.0806854334928
 30
0.0000000000000006
 10
272.722576435799
 20
217.0287932701863
 30
0.0000000000000006
 10
272.6901695579672
 20
216.9205162153071
 30
0.0000000000000006
 10
272.6731332590799
 20
216.8641281613228
 30
0.0000000000000006
 10
272.6460598218868
 20
216.7765436501274
 30
0.0000000000000006
 10
272.6367956436914
 20
216.7468893961572
 30
0.0000000000000006
 10
272.6178258708695
 20
216.6869371377181
 30
0.0000000000000006
 10
272.6081102572587
 20
216.6566064505695
 30
0.0000000000000006
 10
272.5881915693801
 20
216.5952784438542
 30
0.0000000000000006
 10
272.5779863381736
 20
216.5642759714996
 30
0.0000000000000006
 10
272.557175675479
 20
216.5019604772231
 30
0.0000000000000006
 10
272.5465574385134
 20
216.4706074790486
 30
0.0000000000000006
 10
272.4923736821085
 20
216.3129372568647
 30
0.0000000000000006
 10
272.4455090170133
 20
216.1839521508289
 30
0.0000000000000006
 10
272.3444288756132
 20
215.921212242918
 30
0.0000000000000006
 10
272.2902192701137
 20
215.7874435907037
 30
0.0000000000000006
 10
272.2323920300348
 20
215.6512743667714
 30
0.0000000000000006
  0
SPLINE
  5
F4
330
1F
100
AcDbEntity
  8
1
  6
Continuous
 62
     1
370
    13
100
AcDbSpline
210
0.0
220
0.0
230
1.0
 70
     8
 71
     3
 72
    66
 73
    62
 74
     0
 42
0.000000001
 43
0.0000000001
 40
0.0
 40
0.0
 40
0.0
 40
0.0
 40
0.0625000000000013
 40
0.0625000000000013
 40
0.1250000000000026
 40
0.1250000000000026
 40
0.1562500000000031
 40
0.1562500000000031
 40
0.1718750000000033
 40
0.1718750000000033
 40
0.1796875000000033
 40
0.1796875000000033
 40
0.1875000000000032
 40
0.1875000000000032
 40
0.2500000000000027
 40
0.2500000000000027
 40
0.2812500000000026
 40
0.3125000000000024
 40
0.3125000000000024
 40
0.3437500000000023
 40
0.3437500000000023
 40
0.3750000000000022
 40
0.3750000000000022
 40
0.4062500000000021
 40
0.4375000000000019
 40
0.4687500000000018
 40
0.4687500000000018
 40
0.5000000000000017
 40
0.5000000000000017
 40
0.5078125000000016
 40
0.5078125000000016
 40
0.5156250000000016
 40
0.5156250000000016
 40
0.5312500000000014
 40
0.5312500000000014
 40
0.5625000000000013
 40
0.5937500000000012
 40
0.625000000000001
 40
0.6562500000000009
 40
0.6562500000000009
 40
0.6718750000000009
 40
0.6718750000000009
 40
0.6796875000000008
 40
0.6796875000000008
 40
0.6875000000000006
 40
0.71875
 40
0.71875
 40
0.7499999999999994
 40
0.7499999999999994
 40
0.8124999999999982
 40
0.8124999999999982
 40
0.8437499999999978
 40
0.8437499999999978
 40
0.8515624999999979
 40
0.8515624999999979
 40
0.8593749999999981
 40
0.8749999999999982
 40
0.8749999999999982
 40
0.9374999999999991
 40
0.9374999999999991
 40
1.0
 40
1.0
 40
1.0
 40
1.0
 10
272.2323920300348
 20
215.6512743667714
 30
0.0000000000000006
 10
271.9961939150107
 20
215.250174663027
 30
0.0000000000000006
 10
271.7393590219596
 20
214.8690169037286
 30
0.0000000000000005
 10
271.1830659101611
 20
214.1451371429456
 30
0.0000000000000005
 10
270.8836231949348
 20
213.8024060822388
 30
0.0000000000000005
 10
270.4003108727209
 20
213.3170705958816
 30
0.0000000000000005
 10
270.2335017607942
 20
213.1600970779803
 30
0.0000000000000004
 10
269.9743060517911
 20
212.9319569473714
 30
0.0000000000000004
 10
269.886409296277
 20
212.8571311769962
 30
0.0000000000000004
 10
269.7522519543583
 20
212.7467470423512
 30
0.0000000000000004
 10
269.7071065269595
 20
212.7102292167054
 30
0.0000000000000004
 10
269.6162438248015
 20
212.6379834889573
 30
0.0000000000000004
 10
269.5705532725879
 20
212.6022755133961
 30
0.0000000000000004
 10
269.1570062328239
 20
212.2846100911229
 30
0.0000000000000004
 10
268.77288449131
 20
212.0284851464012
 30
0.0000000000000004
 10
268.1713769115581
 20
211.6824653045283
 30
0.0000000000000003
 10
267.761907432686
 20
211.4645506148843
 30
0.0000000000000003
 10
267.3350407483392
 20
211.2722840935966
 30
0.0000000000000003
 10
266.8991244037057
 20
211.0930929793493
 30
0.0000000000000002
 10
266.6766423982837
 20
211.0100338600647
 30
0.0000000000000002
 10
266.2221393657617
 20
210.8574607393401
 30
0.0000000000000002
 10
265.9932712514492
 20
210.7890074144031
 30
0.0000000000000002
 10
265.5324295326898
 20
210.6673258794602
 30
0.0000000000000002
 10
265.0684572585197
 20
210.560862168188
 30
0.0000000000000001
 10
264.3631479522174
 20
210.4461450744705
 30
0.0000000000000001
 10
263.8866578240617
 20
210.3996638783416
 30
0.0000000000000001
 10
263.406960025421
 20
210.3684242157012
 30
0.0
 10
263.1655074901323
 20
210.3604241316644
 30
0.0
 10
262.8616179869255
 20
210.3602625239691
 30
0.0
 10
262.8007362753698
 20
210.3607228063843
 30
0.0
 10
262.6787630036634
 20
210.3626392358503
 30
0.0
 10
262.6177530379549
 20
210.3640952811718
 30
0.0
 10
262.435301459644
 20
210.3699312519459
 30
0.0
 10
262.3141820456038
 20
210.3757819171306
 30
0.0
 10
261.9523375010401
 20
210.3991018128738
 30
-0.0000000000000001
 10
261.4739109445642
 20
210.4455593657873
 30
-0.0000000000000001
 10
260.7680068332376
 20
210.5601636883998
 30
-0.0000000000000001
 10
260.0736348004792
 20
210.719244891294
 30
-0.0000000000000002
 10
259.6183691279415
 20
210.8551132002308
 30
-0.0000000000000002
 10
259.2798087586938
 20
210.9684274397654
 30
-0.0000000000000002
 10
259.1674371482161
 20
211.0081028229359
 30
-0.0000000000000002
 10
258.999608418196
 20
211.0705177678965
 30
-0.0000000000000002
 10
258.9438210476563
 20
211.0917952405956
 30
-0.0000000000000002
 10
258.8329933266508
 20
211.1351220929305
 30
-0.0000000000000003
 10
258.5574856934483
 20
211.2454842146175
 30
-0.0000000000000003
 10
258.2896590631991
 20
211.3659496827189
 30
-0.0000000000000003
 10
257.870499476834
 20
211.5712632730512
 30
-0.0000000000000003
 10
257.66560210354
 20
211.680205496631
 30
-0.0000000000000003
 10
257.0644583707199
 20
212.0256405094335
 30
-0.0000000000000004
 10
256.6817126830159
 20
212.2806623113242
 30
-0.0000000000000004
 10
256.1336056317681
 20
212.700836382058
 30
-0.0000000000000004
 10
255.9552510363014
 20
212.8471881814862
 30
-0.0000000000000004
 10
255.7377249099527
 20
213.03820273985
 30
-0.0000000000000004
 10
255.6945234336715
 20
213.0767822529262
 30
-0.0000000000000004
 10
255.6089541619651
 20
213.1544834611935
 30
-0.0000000000000004
 10
255.4817486543008
 20
213.2719379960925
 30
-0.0000000000000005
 10
255.3579408142474
 20
213.3920856132725
 30
-0.0000000000000005
 10
254.9526114527822
 20
213.7985129698648
 30
-0.0000000000000005
 10
254.6518313497205
 20
214.1425866508945
 30
-0.0000000000000005
 10
254.0938495011192
 20
214.8683873228565
 30
-0.0000000000000005
 10
253.8366660290183
 20
215.2501250605526
 30
-0.0000000000000006
 10
253.600438704272
 20
215.6512743667714
 30
-0.0000000000000006
  0
SPLINE
  5
F5
330
1F
100
AcDbEntity
  8
1
  6
Continuous
 62
     1
370
    13
100
AcDbSpline
210
0.0
220
0.0
230
1.0
 70
     8
 71
     3
 72
    28
 73
    24
 74
     0
 42
0.000000001
 43
0.0000000001
 40
0.0
 40
0.0
 40
0.0
 40
0.0
 40
0.1250000000000003
 40
0.1250000000000003
 40
0.1875000000000002
 40
0.1875000000000002
 40
0.2500000000000002
 40
0.2500000000000002
 40
0.3750000000000002
 40
0.3750000000000002
 40
0.5000000000000001
 40
0.5000000000000001
 40
0.5625000000000003
 40
0.5625000000000003
 40
0.5937500000000004
 40
0.5937500000000004
 40
0.6250000000000004
 40
0.6250000000000004
 40
0.7500000000000003
 40
0.7500000000000003
 40
0.8750000000000001
 40
0.8750000000000001
 40
1.0
 40
1.0
 40
1.0
 40
1.0
 10
276.8573935745014
 20
209.6206350980061
 30
0.0000000000000009
 10
277.0346778499973
 20
209.5129767277541
 30
0.0000000000000009
 10
277.2038758173654
 20
209.4079292666065
 30
0.0000000000000009
 10
277.4454976079478
 20
209.2537756216994
 30
-0.0000000000000009
 10
277.5240133093076
 20
209.2029542085535
 30
-0.0000000000000009
 10
277.6769272002763
 20
209.1023553230029
 30
-0.0000000000000009
 10
277.7510999860979
 20
209.0527259137253
 30
-0.0000000000000009
 10
277.9668477126273
 20
208.9056237092778
 30
-0.0000000000000009
 10
278.1016463117536
 20
208.8099397040299
 30
-0.0000000000000008
 10
278.3536658469607
 20
208.6220392925219
 30
-0.0000000000000008
 10
278.4708795580555
 20
208.5298151623595
 30
-0.0000000000000008
 10
278.6340747863983
 20
208.3930995368779
 30
-0.0000000000000008
 10
278.6863718097687
 20
208.3477985177612
 30
-0.0000000000000008
 10
278.7617662900009
 20
208.2801499534514
 30
-0.0000000000000008
 10
278.7863895053431
 20
208.2576511094254
 30
0.0000000000000001
 10
278.8346390557775
 20
208.2127402847096
 30
0.0000000000000001
 10
278.8582758056983
 20
208.190318067963
 30
0.0000000000000001
 10
278.9738563596031
 20
208.0785547465835
 30
0.0000000000000001
 10
279.0580169364742
 20
207.9901974060752
 30
0.0000000000000001
 10
279.211943702791
 20
207.8151472950095
 30
0.0000000000000001
 10
279.2817190678724
 20
207.7284471783901
 30
0.0000000000000001
 10
279.4091925332509
 20
207.5572818153542
 30
0.0000000000000001
 10
279.4669025917507
 20
207.4728158310605
 30
0.0000000000000001
 10
279.5196160175572
 20
207.3903348236221
 30
0.0000000000000001
  0
SPLINE
  5
F6
330
1F
100
AcDbEntity
  8
1
  6
Continuous
 62
     1
370
    13
100
AcDbSpline
210
0.0
220
0.0
230
1.0
 70
     8
 71
     3
 72
    67
 73
    63
 74
     0
 42
0.000000001
 43
0.0000000001
 40
0.0
 40
0.0
 40
0.0
 40
0.0
 40
0.0312500000000007
 40
0.0312500000000007
 40
0.0625000000000013
 40
0.0625000000000013
 40
0.1250000000000025
 40
0.1250000000000025
 40
0.1406250000000025
 40
0.1406250000000025
 40
0.1484375000000026
 40
0.1484375000000026
 40
0.1562500000000028
 40
0.1875000000000027
 40
0.1875000000000027
 40
0.2500000000000028
 40
0.2500000000000028
 40
0.3125000000000028
 40
0.3125000000000028
 40
0.3203125000000028
 40
0.3203125000000028
 40
0.3281250000000029
 40
0.343750000000003
 40
0.343750000000003
 40
0.3750000000000032
 40
0.3750000000000032
 40
0.4375000000000035
 40
0.4375000000000035
 40
0.4687500000000036
 40
0.4687500000000036
 40
0.4843750000000037
 40
0.4843750000000037
 40
0.4921875000000037
 40
0.4921875000000037
 40
0.5000000000000037
 40
0.5000000000000037
 40
0.5625000000000039
 40
0.5625000000000039
 40
0.6250000000000041
 40
0.6250000000000041
 40
0.6562500000000042
 40
0.6562500000000042
 40
0.6718750000000043
 40
0.6718750000000043
 40
0.6875000000000044
 40
0.6875000000000044
 40
0.7500000000000041
 40
0.7500000000000041
 40
0.8125000000000039
 40
0.8125000000000039
 40
0.8281250000000037
 40
0.8281250000000037
 40
0.8359375000000034
 40
0.8359375000000034
 40
0.8437500000000031
 40
0.8750000000000026
 40
0.8750000000000026
 40
0.9375000000000012
 40
0.9375000000000012
 40
0.9687500000000007
 40
0.9687500000000007
 40
1.0
 40
1.0
 40
1.0
 40
1.0
 10
255.0668424382441
 20
217.9766515316142
 30
-0.0000000000000005
 10
255.1759239940046
 20
217.8271059407823
 30
-0.0000000000000005
 10
255.2894939637468
 20
217.6832477115912
 30
-0.0000000000000005
 10
255.5254236306277
 20
217.4060123890926
 30
-0.0000000000000005
 10
255.6477835618821
 20
217.2726361564619
 30
-0.0000000000000004
 10
256.0279208794901
 20
216.8871658557312
 30
-0.0000000000000004
 10
256.2987073887666
 20
216.6496598937816
 30
-0.0000000000000004
 10
256.6591963775941
 20
216.3747353625199
 30
-0.0000000000000004
 10
256.7323982925725
 20
216.3208539425195
 30
-0.0000000000000004
 10
256.8438747867578
 20
216.2416586471193
 30
-0.0000000000000004
 10
256.8813448877733
 20
216.2155095627002
 30
-0.0000000000000004
 10
256.9566503614514
 20
216.163883290519
 30
-0.0000000000000004
 10
257.1458324152593
 20
216.0364909739061
 30
-0.0000000000000004
 10
257.3395721795246
 20
215.9172777314342
 30
-0.0000000000000003
 10
257.8131595505911
 20
215.6458114396315
 30
-0.0000000000000003
 10
258.1403366075762
 20
215.4842829954102
 30
-0.0000000000000003
 10
258.8176301704407
 20
215.1966856469122
 30
-0.0000000000000003
 10
259.1677439896515
 20
215.0706286382375
 30
-0.0000000000000002
 10
259.5751147206998
 20
214.9481903872385
 30
-0.0000000000000002
 10
259.6206050301743
 20
214.9348457355237
 30
-0.0000000000000002
 10
259.7117516614288
 20
214.9087585859467
 30
-0.0000000000000002
 10
259.8486840168441
 20
214.87053966232
 30
-0.0000000000000002
 10
259.9862499269577
 20
214.8350200212652
 30
-0.0000000000000002
 10
260.2622188600554
 20
214.7674986433843
 30
-0.0000000000000002
 10
260.4473135908431
 20
214.7271702335991
 30
-0.0000000000000002
 10
261.0059096357227
 20
214.6197742200732
 30
-0.0000000000000001
 10
261.3827117660622
 20
214.5662287204356
 30
-0.0000000000000001
 10
261.9545856004614
 20
214.512402417503
 30
-0.0000000000000001
 10
262.1463247206974
 20
214.498892629292
 30
0.0
 10
262.4356389869121
 20
214.485357822273
 30
0.0
 10
262.5323615270029
 20
214.4819689523747
 30
0.0
 10
262.6778780140669
 20
214.4785900835966
 30
0.0
 10
262.7264968305313
 20
214.4777475677741
 30
0.0
 10
262.8236646779055
 20
214.4766371750126
 30
0.0
 10
262.8721901118307
 20
214.4763689828681
 30
0.0
 10
263.3083965460501
 20
214.4765185771674
 30
0.0
 10
263.6924331686361
 20
214.494786155049
 30
0.0
 10
264.453366621526
 20
214.5666628928554
 30
0.0000000000000001
 10
264.830262708823
 20
214.6202724231194
 30
0.0000000000000001
 10
265.3902294113261
 20
214.7281495858134
 30
0.0000000000000002
 10
265.5759865366334
 20
214.7687027443907
 30
0.0000000000000002
 10
265.853251127603
 20
214.8367103647377
 30
0.0000000000000002
 10
265.9455480370339
 20
214.8606091992859
 30
0.0000000000000002
 10
266.1284754180906
 20
214.9105227558121
 30
0.0000000000000002
 10
266.2192383688634
 20
214.936567047508
 30
0.0000000000000002
 10
266.6696003164727
 20
215.0722303058528
 30
0.0000000000000002
 10
267.0188783150383
 20
215.1980854055876
 30
0.0000000000000003
 10
267.6960917813844
 20
215.4859743214029
 30
0.0000000000000003
 10
268.0240269545513
 20
215.6479907919049
 30
0.0000000000000003
 10
268.4204510147509
 20
215.8756265247277
 30
0.0000000000000003
 10
268.4990587666011
 20
215.9224164576682
 30
0.0000000000000003
 10
268.6159446849373
 20
215.9945656696435
 30
0.0000000000000003
 10
268.6547534549672
 20
216.0189550177975
 30
0.0000000000000004
 10
268.7317621497281
 20
216.0682293374918
 30
0.0000000000000004
 10
268.9229169355989
 20
216.1927496854692
 30
0.0000000000000004
 10
269.1072936364915
 20
216.3239717826472
 30
0.0000000000000004
 10
269.5370389075795
 20
216.6522306367141
 30
0.0000000000000004
 10
269.8065702635459
 20
216.888761483281
 30
0.0000000000000004
 10
270.1855714921907
 20
217.2732121060484
 30
0.0000000000000004
 10
270.3076776627904
 20
217.4063229395387
 30
0.0000000000000005
 10
270.543317236955
 20
217.6832321430911
 30
0.0000000000000005
 10
270.6568509589132
 20
217.8270294671684
 30
0.0000000000000005
 10
270.7659882960627
 20
217.9766515316142
 30
0.0000000000000005
  0
SPLINE
  5
F7
330
1F
100
AcDbEntity
  8
1
  6
Continuous
 62
     1
370
    13
100
AcDbSpline
210
0.0
220
0.0
230
1.0
 70
     8
 71
     3
 72
    46
 73
    42
 74
     0
 42
0.000000001
 43
0.0000000001
 40
0.0
 40
0.0
 40
0.0
 40
0.0
 40
0.062500000000005
 40
0.12500000000001
 40
0.12500000000001
 40
0.1875000000000151
 40
0.1875000000000151
 40
0.2187500000000174
 40
0.2187500000000174
 40
0.2500000000000198
 40
0.2500000000000198
 40
0.2656250000000203
 40
0.2656250000000203
 40
0.2812500000000208
 40
0.3125000000000219
 40
0.3125000000000219
 40
0.3750000000000229
 40
0.3750000000000229
 40
0.4375000000000238
 40
0.4375000000000238
 40
0.4687500000000232
 40
0.4687500000000232
 40
0.4843750000000225
 40
0.4843750000000225
 40
0.5000000000000219
 40
0.5312500000000211
 40
0.5312500000000211
 40
0.5468750000000207
 40
0.5468750000000207
 40
0.5625000000000202
 40
0.6250000000000168
 40
0.6250000000000168
 40
0.7500000000000101
 40
0.7500000000000101
 40
0.7812500000000087
 40
0.7812500000000087
 40
0.8125000000000071
 40
0.8125000000000071
 40
0.875000000000005
 40
0.875000000000005
 40
1.0
 40
1.0
 40
1.0
 40
1.0
 10
270.7659882960627
 20
217.9766515316142
 30
0.0000000000000005
 10
270.8445664496828
 20
218.084378418416
 30
0.0000000000000005
 10
270.9960884257861
 20
218.2957936445013
 30
0.0000000000000005
 10
271.1365648135121
 20
218.4991819518706
 30
0.0000000000000005
 10
271.2715731136252
 20
218.6984281615875
 30
0.0000000000000005
 10
271.3363429923965
 20
218.7959810405483
 30
0.0000000000000005
 10
271.4294006922104
 20
218.938981962415
 30
0.0000000000000005
 10
271.4597869818338
 20
218.9861727374448
 30
0.0000000000000005
 10
271.5188002120963
 20
219.0787710884495
 30
0.0000000000000005
 10
271.547459323606
 20
219.124226303062
 30
0.0000000000000005
 10
271.589207828657
 20
219.1911237772367
 30
0.0000000000000005
 10
271.6029292538527
 20
219.2132280524923
 30
0.0000000000000005
 10
271.6299016213935
 20
219.2569031765123
 30
0.0000000000000005
 10
271.6696318966415
 20
219.3215783999219
 30
0.0000000000000005
 10
271.7072347765058
 20
219.3837605636076
 30
0.0000000000000005
 10
271.7797434889011
 20
219.504829359745
 30
0.0000000000000005
 10
271.8244896415447
 20
219.5811545566303
 30
0.0000000000000005
 10
271.9074468524339
 20
219.7250056720017
 30
0.0000000000000006
 10
271.945656538599
 20
219.7925306776858
 30
0.0000000000000006
 10
271.9984936297289
 20
219.8870451740679
 30
0.0000000000000006
 10
272.0153592363987
 20
219.9174196571169
 30
0.0000000000000006
 10
272.0395870948755
 20
219.9612512313645
 30
0.0000000000000006
 10
272.0474853005985
 20
219.9755746316957
 30
0.0000000000000006
 10
272.0628801364664
 20
220.0035416931717
 30
0.0000000000000006
 10
272.0853916403902
 20
220.0445117472046
 30
0.0000000000000006
 10
272.1062232535896
 20
220.08255348536
 30
0.0000000000000006
 10
272.126012945764
 20
220.1186533325244
 30
0.0000000000000006
 10
272.1324409869592
 20
220.1303723146444
 30
0.0000000000000006
 10
272.1449298916068
 20
220.153105173728
 30
0.0000000000000006
 10
272.1752365357701
 20
220.2081805278129
 30
0.0000000000000006
 10
272.2012043259808
 20
220.254631721691
 30
0.0000000000000006
 10
272.2566819608825
 20
220.3504441745681
 30
0.0000000000000006
 10
272.284596748542
 20
220.3934579861587
 30
0.0000000000000006
 10
272.3119754193494
 20
220.4231933440583
 30
0.0000000000000006
 10
272.3170707213976
 20
220.4279359144808
 30
0.0000000000000006
 10
272.3265786903293
 20
220.4350542237956
 30
0.0000000000000006
 10
272.3309939123216
 20
220.4374276948409
 30
0.0000000000000006
 10
272.3432569032718
 20
220.441056984887
 30
0.0000000000000006
 10
272.3501554832781
 20
220.4388531549763
 30
0.0000000000000006
 10
272.3679426482534
 20
220.4195203468515
 30
0.0000000000000006
 10
272.375974902924
 20
220.3896950884517
 30
0.0000000000000006
 10
272.3818717845672
 20
220.3455488023985
 30
0.0000000000000006
  0
SPLINE
  5
F8
330
1F
100
AcDbEntity
  8
1
  6
Continuous
 62
     1
370
    13
100
AcDbSpline
210
0.0
220
0.0
230
1.0
 70
     8
 71
     3
 72
    10
 73
     6
 74
     0
 42
0.000000001
 43
0.0000000001
 40
0.0
 40
0.0
 40
0.0
 40
0.0
 40
0.8813482765948195
 40
0.8813482765948195
 40
1.0
 40
1.0
 40
1.0
 40
1.0
 10
272.3818717845672
 20
220.3455488023985
 30
0.0000000000000006
 10
272.4043815983627
 20
220.1770318236038
 30
0.0000000000000006
 10
272.4141802052984
 20
220.041272570358
 30
0.0000000000000006
 10
272.4163198279089
 20
219.9179461155079
 30
0.0000000000000006
 10
272.4164307793928
 20
219.9038034126349
 30
0.0000000000000006
 10
272.416412088572
 20
219.8901351284836
 30
0.0000000000000005
  0
SPLINE
  5
F9
330
1F
100
AcDbEntity
  8
1
  6
Continuous
 62
     1
370
    13
100
AcDbSpline
210
0.0
220
0.0
230
1.0
 70
     8
 71
     3
 72
    16
 73
    12
 74
     0
 42
0.000000001
 43
0.0000000001
 40
0.0
 40
0.0
 40
0.0
 40
0.0
 40
0.1643459718854369
 40
0.1643459718854369
 40
0.338386051535955
 40
0.338386051535955
 40
0.5124261311864735
 40
0.5124261311864735
 40
0.6864662108369916
 40
0.6864662108369916
 40
1.0
 40
1.0
 40
1.0
 40
1.0
 10
272.362609380797
 20
219.5144208285213
 30
0.0
 10
272.3626274221966
 20
219.5144588349452
 30
0.0
 10
272.3637043653288
 20
219.5171213901777
 30
-0.0000000000000001
 10
272.3678856289004
 20
219.5282668354484
 30
0.0000000000000001
 10
272.3711025173768
 20
219.5370881220719
 30
0.0000000000000001
 10
272.3789239985921
 20
219.5618255456148
 30
0.0000000000000001
 10
272.3835233809709
 20
219.5777484583647
 30
-0.0000000000000003
 10
272.3929900162261
 20
219.6180657076278
 30
-0.0000000000000003
 10
272.397852032101
 20
219.6424666902125
 30
-0.0000000000000003
 10
272.4099933438538
 20
219.7249568177593
 30
-0.0000000000000003
 10
272.4160638994696
 20
219.7944031086233
 30
0.0000000000000004
 10
272.4164002988753
 20
219.8850780878773
 30
0.0000000000000006
  0
SPLINE
  5
FA
330
1F
100
AcDbEntity
  8
1
  6
Continuous
 62
     1
370
    13
100
AcDbSpline
210
0.0
220
0.0
230
1.0
 70
     8
 71
     3
 72
    16
 73
    12
 74
     0
 42
0.000000001
 43
0.0000000001
 40
0.0
 40
0.0
 40
0.0
 40
0.0
 40
0.3150170890113345
 40
0.3150170890113345
 40
0.4882463555822883
 40
0.4882463555822883
 40
0.6614756221532424
 40
0.6614756221532424
 40
0.8347048887241963
 40
0.8347048887241963
 40
1.0
 40
1.0
 40
1.0
 40
1.0
 10
253.4164217951914
 20
219.8879649333045
 30
-0.0000000000000006
 10
253.4166389924751
 20
219.7959809172269
 30
-0.0000000000000004
 10
253.4227442480665
 20
219.7256157692219
 30
0.0000000000000003
 10
253.4349727625714
 20
219.6424927056717
 30
0.0000000000000003
 10
253.4398430857768
 20
219.618049782359
 30
0.0000000000000003
 10
253.4493272381981
 20
219.5776696264143
 30
0.0000000000000003
 10
253.4539359033585
 20
219.5617249612506
 30
-0.0000000000000001
 10
253.4617676318147
 20
219.5369718700666
 30
-0.0000000000000001
 10
253.4649821873752
 20
219.528165070113
 30
-0.0000000000000001
 10
253.4691704008429
 20
219.5170068471321
 30
0.0000000000000001
 10
253.4702370029748
 20
219.5143744158213
 30
0.0
 10
253.4702212832855
 20
219.5144208428178
 30
0.0
  0
SPLINE
  5
FB
330
1F
100
AcDbEntity
  8
1
  6
Continuous
 62
     1
370
    13
100
AcDbSpline
210
0.0
220
0.0
230
1.0
 70
     8
 71
     3
 72
    10
 73
     6
 74
     0
 42
0.000000001
 43
0.0000000001
 40
0.0
 40
0.0
 40
0.0
 40
0.0
 40
0.1160229461819952
 40
0.1160229461819952
 40
1.0
 40
1.0
 40
1.0
 40
1.0
 10
253.4164175924817
 20
219.8908301839963
 30
-0.0000000000000005
 10
253.4164037718839
 20
219.9041711190648
 30
-0.0000000000000006
 10
253.4165133536134
 20
219.9179646025873
 30
-0.0000000000000006
 10
253.4186277258048
 20
220.0408791273248
 30
-0.0000000000000006
 10
253.4284027849272
 20
220.1766848223631
 30
-0.0000000000000006
 10
253.4509589497395
 20
220.3455488023985
 30
-0.0000000000000006
  0
SPLINE
  5
FC
330
1F
100
AcDbEntity
  8
1
  6
Continuous
 62
     1
370
    13
100
AcDbSpline
210
0.0
220
0.0
230
1.0
 70
     8
 71
     3
 72
    45
 73
    41
 74
     0
 42
0.000000001
 43
0.0000000001
 40
0.0
 40
0.0
 40
0.0
 40
0.0
 40
0.1249999999999958
 40
0.1249999999999958
 40
0.2499999999999916
 40
0.2499999999999916
 40
0.2812499999999908
 40
0.2812499999999908
 40
0.3124999999999901
 40
0.3749999999999884
 40
0.3749999999999884
 40
0.4374999999999868
 40
0.4374999999999868
 40
0.4999999999999843
 40
0.4999999999999843
 40
0.5156249999999842
 40
0.5156249999999842
 40
0.5312499999999842
 40
0.5312499999999842
 40
0.562499999999984
 40
0.562499999999984
 40
0.6249999999999836
 40
0.6249999999999836
 40
0.6874999999999831
 40
0.6874999999999831
 40
0.7499999999999827
 40
0.7499999999999827
 40
0.765624999999983
 40
0.765624999999983
 40
0.7812499999999832
 40
0.812499999999985
 40
0.812499999999985
 40
0.8749999999999885
 40
0.9374999999999919
 40
0.9374999999999919
 40
0.9531249999999937
 40
0.9531249999999937
 40
0.9687499999999954
 40
0.9687499999999954
 40
1.0
 40
1.0
 40
1.0
 40
1.0
 10
253.4509589497395
 20
220.3455488023985
 30
-0.0000000000000006
 10
253.4568597005519
 20
220.3897240545161
 30
-0.0000000000000006
 10
253.4648912306381
 20
220.4194596176474
 30
-0.0000000000000006
 10
253.4884934866854
 20
220.4452408303924
 30
-0.0000000000000006
 10
253.5040382451816
 20
220.4413157171141
 30
-0.0000000000000006
 10
253.5314492629199
 20
220.411721601283
 30
-0.0000000000000006
 10
253.5373404805786
 20
220.4045591592209
 30
-0.0000000000000006
 10
253.5500268138852
 20
220.3876677093167
 30
-0.0000000000000006
 10
253.570321015951
 20
220.358605767115
 30
-0.0000000000000006
 10
253.5947759111033
 20
220.3182817423566
 30
-0.0000000000000006
 10
253.6318191768139
 20
220.2542912349986
 30
-0.0000000000000006
 10
253.6525581584427
 20
220.2171851472227
 30
-0.0000000000000006
 10
253.6993215978892
 20
220.132438023215
 30
-0.0000000000000006
 10
253.7253443119133
 20
220.0847994040793
 30
-0.0000000000000006
 10
253.7618010225752
 20
220.0183740663122
 30
-0.0000000000000006
 10
253.7692892328062
 20
220.0047446475766
 30
-0.0000000000000006
 10
253.7846770319061
 20
219.9767875241729
 30
-0.0000000000000006
 10
253.79258219083
 20
219.9624498416741
 30
-0.0000000000000006
 10
253.8168006234551
 20
219.9186296797845
 30
-0.0000000000000006
 10
253.8336573962171
 20
219.888266500464
 30
-0.0000000000000006
 10
253.8864577976549
 20
219.7938015394973
 30
-0.0000000000000006
 10
253.9246295605614
 20
219.7263303743765
 30
-0.0000000000000006
 10
254.0074678941194
 20
219.5826523633303
 30
-0.0000000000000005
 10
254.0521331464447
 20
219.506446337787
 30
-0.0000000000000005
 10
254.148586082822
 20
219.3453502521797
 30
-0.0000000000000005
 10
254.2003718779797
 20
219.2604617058894
 30
-0.0000000000000005
 10
254.2700259190003
 20
219.1488081162136
 30
-0.0000000000000005
 10
254.2841763375203
 20
219.126243016787
 30
-0.0000000000000005
 10
254.3128072083876
 20
219.0808283017558
 30
-0.0000000000000005
 10
254.3562980882143
 20
219.0121998481275
 30
-0.0000000000000005
 10
254.4014268423944
 20
218.9420843314707
 30
-0.0000000000000005
 10
254.4938832400751
 20
218.799937706026
 30
-0.0000000000000005
 10
254.6230190927623
 20
218.6053122607018
 30
-0.0000000000000005
 10
254.7641118530119
 20
218.4009176619554
 30
-0.0000000000000005
 10
254.8561451341183
 20
218.2701394376847
 30
-0.0000000000000005
 10
254.8747444825565
 20
218.2438317842756
 30
-0.0000000000000005
 10
254.9123321601152
 20
218.1909112688191
 30
-0.0000000000000005
 10
254.9313161449619
 20
218.1643047856687
 30
-0.0000000000000005
 10
254.9886550955831
 20
218.0843051187613
 30
-0.0000000000000005
 10
255.02746114795
 20
218.030641395287
 30
-0.0000000000000005
 10
255.0668424382441
 20
217.9766515316142
 30
-0.0000000000000005
  0
SPLINE
  5
FD
330
1F
100
AcDbEntity
  8
1
  6
Continuous
 62
     1
370
    18
100
AcDbSpline
210
0.0
220
0.0
230
1.0
 70
     8
 71
     3
 72
    10
 73
     6
 74
     0
 42
0.000000001
 43
0.0000000001
 40
0.0
 40
0.0
 40
0.0
 40
0.0
 40
0.2170740917534099
 40
0.6596505585056669
 40
1.0
 40
1.0
 40
1.0
 40
1.0
 10
246.3207838790844
 20
207.4123110194968
 30
-0.0000000000000001
 10
246.2813656949756
 20
207.3447730250875
 30
-0.0000000000000001
 10
246.1555316170454
 20
207.144039520106
 30
-0.0000000000000001
 10
245.9310582014585
 20
206.8615380625358
 30
-0.0000000000000002
 10
245.7375178934174
 20
206.6581696667018
 30
-0.0000000000000002
 10
245.6490966564614
 20
206.573295133677
 30
-0.0000000000000002
  0
SPLINE
  5
FE
330
1F
100
AcDbEntity
  8
1
  6
Continuous
 62
     1
370
    13
100
AcDbSpline
210
0.0
220
0.0
230
1.0
 70
     8
 71
     3
 72
    26
 73
    22
 74
     0
 42
0.000000001
 43
0.0000000001
 40
0.0
 40
0.0
 40
0.0
 40
0.0
 40
0.1249999999999995
 40
0.1249999999999995
 40
0.2499999999999991
 40
0.2499999999999991
 40
0.3749999999999986
 40
0.3749999999999986
 40
0.4999999999999978
 40
0.4999999999999978
 40
0.6249999999999973
 40
0.6249999999999973
 40
0.6562499999999978
 40
0.6562499999999978
 40
0.6874999999999982
 40
0.6874999999999982
 40
0.7499999999999986
 40
0.7499999999999986
 40
0.8749999999999993
 40
0.8749999999999993
 40
1.0
 40
1.0
 40
1.0
 40
1.0
 10
125.3619618365974
 20
35.0433671739727
 30
0.000000000000001
 10
125.6455581541416
 20
35.09614100815759
 30
0.000000000000001
 10
125.9268865154673
 20
35.15385907806994
 30
0.000000000000001
 10
126.4849482740806
 20
35.28113362499654
 30
0.000000000000001
 10
126.7616770623054
 20
35.35070250054017
 30
0.000000000000001
 10
127.3100340167755
 20
35.50382701251883
 30
0.000000000000001
 10
127.5816565083778
 20
35.58739172192631
 30
0.000000000000001
 10
128.1190134968281
 20
35.77049418630539
 30
0.000000000000001
 10
128.3847431175658
 20
35.87003520980148
 30
0.000000000000001
 10
128.9094106451833
 20
36.08672206345877
 30
0.000000000000001
 10
129.1683458154549
 20
36.2038653284288
 30
0.0000000000000009
 10
129.4872065184274
 20
36.36209030886717
 30
0.0000000000000009
 10
129.5507383348317
 20
36.3943243876754
 30
0.0000000000000009
 10
129.6773077235246
 20
36.4599881310775
 30
0.0000000000000009
 10
129.7403758953855
 20
36.4934344369649
 30
0.0000000000000009
 10
129.9286122555195
 20
36.5954795184432
 30
0.0000000000000009
 10
130.052515951353
 20
36.66562116338359
 30
0.0000000000000009
 10
130.4193816654104
 20
36.88236510289715
 30
0.0000000000000009
 10
130.6574965843734
 20
37.03528348368392
 30
0.0000000000000009
 10
131.1204424651791
 20
37.35786692243963
 30
0.0000000000000009
 10
131.3452785646393
 20
37.52752445458295
 30
0.0000000000000009
 10
131.5632940844957
 20
37.70558961702944
 30
0.0000000000000009
  0
SPLINE
  5
FF
330
1F
100
AcDbEntity
  8
1
  6
Continuous
 62
     1
370
    13
100
AcDbSpline
210
0.0
220
0.0
230
1.0
 70
     8
 71
     3
 72
    26
 73
    22
 74
     0
 42
0.000000001
 43
0.0000000001
 40
0.0
 40
0.0
 40
0.0
 40
0.0
 40
0.1249999999999993
 40
0.1249999999999993
 40
0.2499999999999987
 40
0.2499999999999987
 40
0.374999999999998
 40
0.374999999999998
 40
0.499999999999997
 40
0.499999999999997
 40
0.6249999999999963
 40
0.6249999999999963
 40
0.6562499999999963
 40
0.6562499999999963
 40
0.6874999999999962
 40
0.6874999999999962
 40
0.7499999999999969
 40
0.7499999999999969
 40
0.8749999999999984
 40
0.8749999999999984
 40
1.0
 40
1.0
 40
1.0
 40
1.0
 10
114.9919122541602
 20
68.24976847478224
 30
-0.000000000000001
 10
114.708315936616
 20
68.19699464059735
 30
-0.000000000000001
 10
114.4269875752903
 20
68.139276570685
 30
-0.000000000000001
 10
113.868925816677
 20
68.0120020237584
 30
-0.000000000000001
 10
113.5921970284522
 20
67.94243314821477
 30
-0.000000000000001
 10
113.0438400739821
 20
67.78930863623611
 30
-0.000000000000001
 10
112.7722175823797
 20
67.70574392682863
 30
-0.000000000000001
 10
112.2348605939295
 20
67.52264146244954
 30
-0.000000000000001
 10
111.9691309731918
 20
67.42310043895347
 30
-0.000000000000001
 10
111.4444634455743
 20
67.20641358529618
 30
-0.000000000000001
 10
111.1855282753027
 20
67.08927032032614
 30
-0.0000000000000009
 10
110.8666675723302
 20
66.93104533988777
 30
-0.0000000000000009
 10
110.8031357559259
 20
66.89881126107954
 30
-0.0000000000000009
 10
110.676566367233
 20
66.83314751767745
 30
-0.0000000000000009
 10
110.6134981953721
 20
66.79970121179005
 30
-0.0000000000000009
 10
110.4252618352381
 20
66.69765613031174
 30
-0.0000000000000009
 10
110.3013581394046
 20
66.62751448537135
 30
-0.0000000000000009
 10
109.9344924253472
 20
66.41077054585779
 30
-0.0000000000000009
 10
109.6963775063842
 20
66.25785216507103
 30
-0.0000000000000009
 10
109.2334316255784
 20
65.93526872631531
 30
-0.0000000000000009
 10
109.0085955261183
 20
65.765611194172
 30
-0.0000000000000009
 10
108.7905800062618
 20
65.58754603172551
 30
-0.0000000000000009
  0
SPLINE
  5
100
330
1F
100
AcDbEntity
  8
1
  6
Continuous
 62
     1
370
    13
100
AcDbSpline
210
0.0
220
0.0
230
1.0
 70
     8
 71
     3
 72
    22
 73
    18
 74
     0
 42
0.000000001
 43
0.0000000001
 40
0.0
 40
0.0
 40
0.0
 40
0.0
 40
0.1249999999999999
 40
0.1249999999999999
 40
0.2499999999999998
 40
0.2499999999999998
 40
0.3749999999999998
 40
0.3749999999999998
 40
0.4999999999999998
 40
0.4999999999999998
 40
0.6249999999999998
 40
0.6249999999999998
 40
0.7499999999999998
 40
0.7499999999999998
 40
0.8749999999999999
 40
0.8749999999999999
 40
1.0
 40
1.0
 40
1.0
 40
1.0
 10
114.9919122541549
 20
35.04336717397367
 30
0.000000000000001
 10
115.4239626537961
 20
35.04700753680694
 30
0.000000000000001
 10
115.8560313604491
 20
35.04779764553309
 30
0.000000000000001
 10
116.7201836955916
 20
35.04705465340814
 30
0.000000000000001
 10
117.1522659102118
 20
35.04550861597824
 30
0.000000000000001
 10
118.0164200673262
 20
35.04223289545713
 30
0.000000000000001
 10
118.448496527489
 20
35.04049742592805
 30
0.000000000000001
 10
119.3126559582932
 20
35.03805412070803
 30
0.000000000000001
 10
119.7447389146571
 20
35.03734403140555
 30
0.000000000000001
 10
120.6089138233301
 20
35.03734380025055
 30
0.000000000000001
 10
121.0410073857891
 20
35.03805367081239
 30
0.000000000000001
 10
121.9051927523311
 20
35.04049675749963
 30
0.000000000000001
 10
122.337283379168
 20
35.04223221616131
 30
0.000000000000001
 10
123.2014654132402
 20
35.04550810722344
 30
0.000000000000001
 10
123.6335567973264
 20
35.04705432469689
 30
0.000000000000001
 10
124.4977489649548
 20
35.04779777870281
 30
0.000000000000001
 10
124.9298496963087
 20
35.04700805702046
 30
0.000000000000001
 10
125.3619618365967
 20
35.04336717397393
 30
0.000000000000001
  0
SPLINE
  5
101
330
1F
100
AcDbEntity
  8
1
  6
Continuous
 62
     1
370
    13
100
AcDbSpline
210
0.0
220
0.0
230
1.0
 70
     8
 71
     3
 72
    22
 73
    18
 74
     0
 42
0.000000001
 43
0.0000000001
 40
0.0
 40
0.0
 40
0.0
 40
0.0
 40
0.1249999999999999
 40
0.1249999999999999
 40
0.2499999999999998
 40
0.2499999999999998
 40
0.3749999999999998
 40
0.3749999999999998
 40
0.4999999999999998
 40
0.4999999999999998
 40
0.6249999999999998
 40
0.6249999999999998
 40
0.7499999999999998
 40
0.7499999999999998
 40
0.8749999999999999
 40
0.8749999999999999
 40
1.0
 40
1.0
 40
1.0
 40
1.0
 10
125.3619618366027
 20
68.24976847478126
 30
-0.000000000000001
 10
124.9299114369615
 20
68.246128111948
 30
-0.000000000000001
 10
124.4978427303085
 20
68.24533800322183
 30
-0.000000000000001
 10
123.633690395166
 20
68.2460809953468
 30
-0.000000000000001
 10
123.2016081805458
 20
68.2476270327767
 30
-0.000000000000001
 10
122.3374540234314
 20
68.25090275329781
 30
-0.000000000000001
 10
121.9053775632686
 20
68.25263822282689
 30
-0.000000000000001
 10
121.0412181324644
 20
68.25508152804692
 30
-0.000000000000001
 10
120.6091351761005
 20
68.25579161734939
 30
-0.000000000000001
 10
119.7449602674275
 20
68.2557918485044
 30
-0.000000000000001
 10
119.3128667049685
 20
68.25508197794255
 30
-0.000000000000001
 10
118.4486813384265
 20
68.2526388912553
 30
-0.000000000000001
 10
118.0165907115896
 20
68.25090343259363
 30
-0.000000000000001
 10
117.1524086775174
 20
68.2476275415315
 30
-0.000000000000001
 10
116.7203172934312
 20
68.24608132405805
 30
-0.000000000000001
 10
115.8561251258028
 20
68.24533787005214
 30
-0.000000000000001
 10
115.4240243944489
 20
68.24612759173448
 30
-0.000000000000001
 10
114.9919122541608
 20
68.249768474781
 30
-0.000000000000001
  0
SPLINE
  5
102
330
1F
100
AcDbEntity
  8
1
  6
Continuous
 62
     1
370
    13
100
AcDbSpline
210
0.0
220
0.0
230
1.0
 70
     8
 71
     3
 72
    28
 73
    24
 74
     0
 42
0.000000001
 43
0.0000000001
 40
0.0
 40
0.0
 40
0.0
 40
0.0
 40
0.1250000000000003
 40
0.1250000000000003
 40
0.1875000000000002
 40
0.1875000000000002
 40
0.2500000000000002
 40
0.2500000000000002
 40
0.3750000000000002
 40
0.3750000000000002
 40
0.5000000000000001
 40
0.5000000000000001
 40
0.5625000000000003
 40
0.5625000000000003
 40
0.5937500000000004
 40
0.5937500000000004
 40
0.6250000000000004
 40
0.6250000000000004
 40
0.7500000000000003
 40
0.7500000000000003
 40
0.8750000000000001
 40
0.8750000000000001
 40
1.0
 40
1.0
 40
1.0
 40
1.0
 10
131.5632940844958
 20
65.58754603172544
 30
-0.0000000000000009
 10
131.3462346498844
 20
65.7648303072214
 30
-0.0000000000000009
 10
131.1221104340861
 20
65.93402827458951
 30
-0.0000000000000009
 10
130.775521804777
 20
66.17565006517188
 30
-0.0000000000000009
 10
130.6582473705733
 20
66.25416576653173
 30
-0.0000000000000009
 10
130.4203014170965
 20
66.40707965750045
 30
-0.0000000000000009
 10
130.2999812161455
 20
66.48125244332205
 30
-0.0000000000000009
 10
129.9351009161151
 20
66.69700016985142
 30
-0.0000000000000009
 10
129.6866173496122
 20
66.8317987689777
 30
-0.0000000000000009
 10
129.1799047534143
 20
67.08381830418476
 30
-0.0000000000000009
 10
128.9216750883791
 20
67.2010320152796
 30
-0.000000000000001
 10
128.5276513250273
 20
67.36422724362241
 30
-0.000000000000001
 10
128.3951979459619
 20
67.41652426699278
 30
-0.000000000000001
 10
128.1949364197759
 20
67.49191874722503
 30
-0.000000000000001
 10
128.1279190452251
 20
67.51654196256719
 30
-0.000000000000001
 10
127.9933720483858
 20
67.56479151300158
 30
-0.000000000000001
 10
127.9258113379165
 20
67.58842826292235
 30
-0.000000000000001
 10
127.587253540401
 20
67.70400881682716
 30
-0.000000000000001
 10
127.3139347025183
 20
67.78816939369831
 30
-0.000000000000001
 10
126.7630612235146
 20
67.94209616001505
 30
-0.000000000000001
 10
126.4855112438676
 20
68.01187152509648
 30
-0.000000000000001
 10
125.92659573893
 20
68.13934499047502
 30
-0.000000000000001
 10
125.6452335312734
 20
68.19705504897482
 30
-0.000000000000001
 10
125.3619618366027
 20
68.24976847478126
 30
-0.000000000000001
  0
SPLINE
  5
103
330
1F
100
AcDbEntity
  8
1
  6
Continuous
 62
     1
370
    13
100
AcDbSpline
210
0.0
220
0.0
230
1.0
 70
     8
 71
     3
 72
    28
 73
    24
 74
     0
 42
0.000000001
 43
0.0000000001
 40
0.0
 40
0.0
 40
0.0
 40
0.0
 40
0.1250000000000003
 40
0.1250000000000003
 40
0.1875000000000002
 40
0.1875000000000002
 40
0.2500000000000002
 40
0.2500000000000002
 40
0.3750000000000002
 40
0.3750000000000002
 40
0.5000000000000001
 40
0.5000000000000001
 40
0.5625000000000003
 40
0.5625000000000003
 40
0.5937500000000004
 40
0.5937500000000004
 40
0.6250000000000004
 40
0.6250000000000004
 40
0.7500000000000003
 40
0.7500000000000003
 40
0.8750000000000001
 40
0.8750000000000001
 40
1.0
 40
1.0
 40
1.0
 40
1.0
 10
108.7905800062618
 20
37.7055896170295
 30
0.0000000000000009
 10
109.0076394408732
 20
37.52830534153354
 30
0.0000000000000009
 10
109.2317636566715
 20
37.35910737416543
 30
0.0000000000000009
 10
109.5783522859806
 20
37.11748558358306
 30
0.0000000000000009
 10
109.6956267201843
 20
37.03896988222322
 30
0.0000000000000009
 10
109.9335726736611
 20
36.88605599125449
 30
0.0000000000000009
 10
110.0538928746121
 20
36.8118832054329
 30
0.0000000000000009
 10
110.4187731746425
 20
36.59613547890352
 30
0.0000000000000009
 10
110.6672567411454
 20
36.46133687977724
 30
0.0000000000000009
 10
111.1739693373432
 20
36.20931734457019
 30
0.0000000000000009
 10
111.4321990023785
 20
36.09210363347535
 30
0.000000000000001
 10
111.8262227657303
 20
35.92890840513254
 30
0.000000000000001
 10
111.9586761447957
 20
35.87661138176216
 30
0.000000000000001
 10
112.1589376709817
 20
35.80121690152991
 30
0.000000000000001
 10
112.2259550455325
 20
35.77659368618776
 30
0.000000000000001
 10
112.3605020423718
 20
35.72834413575336
 30
0.000000000000001
 10
112.4280627528411
 20
35.70470738583259
 30
0.000000000000001
 10
112.7666205503565
 20
35.58912683192779
 30
0.000000000000001
 10
113.0399393882393
 20
35.50496625505663
 30
0.000000000000001
 10
113.590812867243
 20
35.35103948873989
 30
0.000000000000001
 10
113.86836284689
 20
35.28126412365846
 30
0.000000000000001
 10
114.4272783518276
 20
35.15379065827992
 30
0.000000000000001
 10
114.7086405594842
 20
35.09608059978012
 30
0.000000000000001
 10
114.9919122541549
 20
35.04336717397367
 30
0.000000000000001
  0
SPLINE
  5
104
330
1F
100
AcDbEntity
  8
1
  6
Continuous
 62
     1
370
    13
100
AcDbSpline
210
0.0
220
0.0
230
1.0
 70
     8
 71
     3
 72
    46
 73
    42
 74
     0
 42
0.000000001
 43
0.0000000001
 40
0.0
 40
0.0
 40
0.0
 40
0.0
 40
0.0044800415495948
 40
0.0044800415495948
 40
0.146697178471101
 40
0.146697178471101
 40
0.182251462701476
 40
0.182251462701476
 40
0.217805746931851
 40
0.217805746931851
 40
0.2889143153925976
 40
0.2889143153925976
 40
0.3600228838533441
 40
0.3600228838533441
 40
0.4311314523140907
 40
0.4311314523140907
 40
0.4666857365444622
 40
0.4666857365444622
 40
0.5022400207748337
 40
0.5022400207748337
 40
0.5733485892355769
 40
0.5733485892355769
 40
0.6089028734659478
 40
0.6089028734659478
 40
0.6266800155811317
 40
0.6266800155811317
 40
0.6444571576963157
 40
0.6444571576963157
 40
0.715565726157051
 40
0.715565726157051
 40
0.7866742946177865
 40
0.7866742946177865
 40
0.8577828630785218
 40
0.8577828630785218
 40
0.8755600051937062
 40
0.8755600051937062
 40
0.8933371473088907
 40
0.8933371473088907
 40
0.928891431539261
 40
0.928891431539261
 40
1.0
 40
1.0
 40
1.0
 40
1.0
 10
135.4352990714215
 20
42.14478682872616
 30
0.0000000000000006
 10
135.4336879408473
 20
42.14322485377384
 30
0.0000000000000006
 10
135.4320682095687
 20
42.14166652115019
 30
0.0000000000000006
 10
135.3787490619912
 20
42.09075886886551
 30
0.0000000000000006
 10
135.3184166678507
 20
42.04508405556057
 30
0.0000000000000006
 10
135.2310107764858
 20
41.99240779574886
 30
0.0000000000000006
 10
135.2129243434539
 20
41.98209209110716
 30
0.0000000000000006
 10
135.1754845492716
 20
41.96188908736197
 30
0.0000000000000006
 10
135.1561549905254
 20
41.95201690961095
 30
0.0000000000000006
 10
135.096636616514
 20
41.92323083798791
 30
0.0000000000000006
 10
135.0547976844507
 20
41.90507964179099
 30
0.0000000000000006
 10
134.9664929332494
 20
41.87060892398262
 30
0.0000000000000006
 10
134.9200294976838
 20
41.8542904973093
 30
0.0000000000000006
 10
134.8219574610916
 20
41.8231733949731
 30
0.0000000000000006
 10
134.7703532563969
 20
41.80837661386407
 30
0.0000000000000006
 10
134.6884658616665
 20
41.78700560832263
 30
0.0000000000000006
 10
134.660418268353
 20
41.78001777601197
 30
0.0000000000000006
 10
134.6026842225586
 20
41.76624756694633
 30
0.0000000000000006
 10
134.5732490014523
 20
41.75952502226549
 30
0.0000000000000006
 10
134.4831502668482
 20
41.73971841509496
 30
0.0000000000000006
 10
134.4207016288269
 20
41.72700062636208
 30
0.0000000000000006
 10
134.3229722905878
 20
41.70806825410156
 30
0.0000000000000006
 10
134.2897179039696
 20
41.70178031167485
 30
0.0000000000000006
 10
134.2387397257662
 20
41.69229624476488
 30
0.0000000000000006
 10
134.2215640846476
 20
41.68912609203085
 30
0.0000000000000006
 10
134.1868317712689
 20
41.682752407895
 30
0.0000000000000006
 10
134.1692742992064
 20
41.67954878304544
 30
0.0000000000000006
 10
134.0810984143831
 20
41.66351478473545
 30
0.0000000000000006
 10
134.0088577590461
 20
41.65055248951768
 30
0.0000000000000006
 10
133.860855483495
 20
41.6234022440533
 30
0.0000000000000006
 10
133.7868994292446
 20
41.60953450385707
 30
0.0000000000000006
 10
133.6393494484857
 20
41.58055727402031
 30
0.0000000000000006
 10
133.5657320787094
 20
41.56544477171232
 30
0.0000000000000006
 10
133.4739603546959
 20
41.54549508675863
 30
0.0000000000000006
 10
133.4556184033616
 20
41.54145272023785
 30
0.0000000000000006
 10
133.4189602033523
 20
41.53325816518571
 30
0.0000000000000006
 10
133.4006511775489
 20
41.52910733316245
 30
0.0000000000000006
 10
133.3461415538351
 20
41.51657247268531
 30
0.0000000000000006
 10
133.3102281771424
 20
41.50807692471813
 30
0.0000000000000006
 10
133.2036528663789
 20
41.48215079223906
 30
0.0000000000000006
 10
133.1341525501981
 20
41.4642776489444
 30
0.0000000000000006
 10
133.06594072051
 20
41.44580623365322
 30
0.0000000000000006
  0
SPLINE
  5
105
330
1F
100
AcDbEntity
  8
1
  6
Continuous
 62
     1
370
    13
100
AcDbSpline
210
0.0
220
0.0
230
1.0
 70
     8
 71
     3
 72
    46
 73
    42
 74
     0
 42
0.000000001
 43
0.0000000001
 40
0.0
 40
0.0
 40
0.0
 40
0.0
 40
0.1249178047371144
 40
0.1249178047371144
 40
0.1613795628730698
 40
0.1613795628730698
 40
0.197841321009025
 40
0.197841321009025
 40
0.2707648372809335
 40
0.2707648372809335
 40
0.343688353552842
 40
0.343688353552842
 40
0.4166118698247504
 40
0.4166118698247504
 40
0.4530736279607042
 40
0.4530736279607042
 40
0.4895353860966581
 40
0.4895353860966581
 40
0.5624589023685674
 40
0.5624589023685674
 40
0.598920660504522
 40
0.598920660504522
 40
0.6171515395724982
 40
0.6171515395724982
 40
0.6353824186404746
 40
0.6353824186404746
 40
0.6718441767764273
 40
0.6718441767764273
 40
0.7083059349123799
 40
0.7083059349123799
 40
0.7812294511842829
 40
0.7812294511842829
 40
0.854152967456186
 40
0.854152967456186
 40
0.8723838465241621
 40
0.8723838465241621
 40
0.8906147255921384
 40
0.8906147255921384
 40
0.9270764837280918
 40
0.9270764837280918
 40
1.0
 40
1.0
 40
1.0
 40
1.0
 10
104.9295068283383
 20
61.14675405438306
 30
-0.0000000000000006
 10
104.9766214424485
 20
61.18918897914225
 30
-0.0000000000000006
 10
105.0302624886572
 20
61.22895816609068
 30
-0.0000000000000006
 10
105.108784638242
 20
61.27701239595014
 30
-0.0000000000000006
 10
105.1271399319275
 20
61.28765188258772
 30
-0.0000000000000006
 10
105.1651366578058
 20
61.3085063443875
 30
-0.0000000000000006
 10
105.184724740682
 20
61.31869041331872
 30
-0.0000000000000006
 10
105.245056467263
 20
61.34842358253113
 30
-0.0000000000000006
 10
105.2874579669589
 20
61.36720526982796
 30
-0.0000000000000006
 10
105.3769289573895
 20
61.40293920522889
 30
-0.0000000000000006
 10
105.4239960833907
 20
61.41989034167798
 30
-0.0000000000000006
 10
105.5233174575369
 20
61.45228034675485
 30
-0.0000000000000006
 10
105.5755673526156
 20
61.46771729960777
 30
-0.0000000000000006
 10
105.6584550485459
 20
61.49005945492158
 30
-0.0000000000000006
 10
105.6868818585697
 20
61.49738280456621
 30
-0.0000000000000006
 10
105.7452088535974
 20
61.51178550568605
 30
-0.0000000000000006
 10
105.7749357446297
 20
61.51882304585057
 30
-0.0000000000000006
 10
105.8658901572131
 20
61.53957145106089
 30
-0.0000000000000006
 10
105.9288840223625
 20
61.55291308428644
 30
-0.0000000000000006
 10
106.0273657615634
 20
61.57277425495068
 30
-0.0000000000000006
 10
106.0608599197733
 20
61.57937058603473
 30
-0.0000000000000006
 10
106.112176299899
 20
61.58931466117328
 30
-0.0000000000000006
 10
106.1294610869412
 20
61.5926377153249
 30
-0.0000000000000006
 10
106.1644035304282
 20
61.59931612782704
 30
-0.0000000000000006
 10
106.1820494563342
 20
61.60266919709695
 30
-0.0000000000000006
 10
106.2352092481513
 20
61.6127338249409
 30
-0.0000000000000006
 10
106.2710553543919
 20
61.61947195165075
 30
-0.0000000000000006
 10
106.3435696598266
 20
61.63312197262876
 30
-0.0000000000000006
 10
106.3802774220576
 20
61.64004141861047
 30
-0.0000000000000006
 10
106.4914041157031
 20
61.6611878971062
 30
-0.0000000000000006
 10
106.5653343348566
 20
61.67552938259561
 30
-0.0000000000000006
 10
106.7127632719026
 20
61.70536802012209
 30
-0.0000000000000006
 10
106.7862622529587
 20
61.72086385877843
 30
-0.0000000000000006
 10
106.8778200592269
 20
61.74122703633162
 30
-0.0000000000000006
 10
106.8961159319415
 20
61.74534882935593
 30
-0.0000000000000006
 10
106.9326755495454
 20
61.75369558171041
 30
-0.0000000000000006
 10
106.9509440467209
 20
61.75792188746117
 30
-0.0000000000000006
 10
107.0053371902772
 20
61.77067518106225
 30
-0.0000000000000006
 10
107.0411748013791
 20
61.77930511856306
 30
-0.0000000000000006
 10
107.1475270069887
 20
61.80560307609741
 30
-0.0000000000000006
 10
107.2168841116943
 20
61.82368232509473
 30
-0.0000000000000006
 10
107.2849552377592
 20
61.84232452023909
 30
-0.0000000000000006
  0
SPLINE
  5
106
330
1F
100
AcDbEntity
  8
1
  6
Continuous
 62
     1
370
    13
100
AcDbSpline
210
0.0
220
0.0
230
1.0
 70
     8
 71
     3
 72
    44
 73
    40
 74
     0
 42
0.000000001
 43
0.0000000001
 40
0.0
 40
0.0
 40
0.0
 40
0.0
 40
0.071173130527981
 40
0.071173130527981
 40
0.1423462610559619
 40
0.1423462610559619
 40
0.1601395436879562
 40
0.1601395436879562
 40
0.1779328263199504
 40
0.1779328263199504
 40
0.2135193915839407
 40
0.2135193915839407
 40
0.2846925221119211
 40
0.2846925221119211
 40
0.3558656526399014
 40
0.3558656526399014
 40
0.3736589352718958
 40
0.3736589352718958
 40
0.3914522179038901
 40
0.4270387831678798
 40
0.4626253484318696
 40
0.4626253484318696
 40
0.4982119136958594
 40
0.4982119136958594
 40
0.5693850442238383
 40
0.5693850442238383
 40
0.6405581747518173
 40
0.6405581747518173
 40
0.7117313052797961
 40
0.7117313052797961
 40
0.7829044358077751
 40
0.7829044358077751
 40
0.8184910010717636
 40
0.8184910010717636
 40
0.8540775663357522
 40
0.8540775663357522
 40
0.99642382739171
 40
0.99642382739171
 40
1.0
 40
1.0
 40
1.0
 40
1.0
 10
133.06594072051
 20
61.84732941510173
 30
-0.0000000000000006
 10
133.1340798533279
 20
61.82887768575193
 30
-0.0000000000000006
 10
133.2033347987886
 20
61.81106943084491
 30
-0.0000000000000006
 10
133.3444752975896
 20
61.7767204511191
 30
-0.0000000000000006
 10
133.4163605419452
 20
61.76018238612515
 30
-0.0000000000000006
 10
133.5081513103345
 20
61.74020329648513
 30
-0.0000000000000006
 10
133.5266063486489
 20
61.7362416806501
 30
-0.0000000000000006
 10
133.563718176075
 20
61.72838217531239
 30
-0.0000000000000006
 10
133.5824008279303
 20
61.72447903243513
 30
-0.0000000000000006
 10
133.6384831962169
 20
61.71291397634032
 30
-0.0000000000000006
 10
133.6760061286787
 20
61.70537823785445
 30
-0.0000000000000006
 10
133.7885404536099
 20
61.68328120168413
 30
-0.0000000000000006
 10
133.8624721657068
 20
61.66943576503893
 30
-0.0000000000000006
 10
134.0080767425226
 20
61.64272750653691
 30
-0.0000000000000006
 10
134.0797500967728
 20
61.62986376341414
 30
-0.0000000000000006
 10
134.1678800845406
 20
61.61384093343906
 30
-0.0000000000000006
 10
134.1854272296577
 20
61.61063995661557
 30
-0.0000000000000006
 10
134.2201232561617
 20
61.60427491004573
 30
-0.0000000000000006
 10
134.271667582141
 20
61.59476509919048
 30
-0.0000000000000006
 10
134.3551573495975
 20
61.57898781689792
 30
-0.0000000000000006
 10
134.4195191124824
 20
61.56621492807854
 30
-0.0000000000000006
 10
134.4827279863102
 20
61.55326161270222
 30
-0.0000000000000006
 10
134.5135218995532
 20
61.54674218521241
 30
-0.0000000000000006
 10
134.6034778382796
 20
61.52696209820343
 30
-0.0000000000000006
 10
134.660330986866
 20
61.5134528238382
 30
-0.0000000000000006
 10
134.7687472511926
 20
61.48519759512973
 30
-0.0000000000000006
 10
134.8203056482113
 20
61.47045414308054
 30
-0.0000000000000006
 10
134.9187240233701
 20
61.43929062040843
 30
-0.0000000000000006
 10
134.9656054122239
 20
61.42286264624904
 30
-0.0000000000000006
 10
135.0549301590519
 20
61.3880147373869
 30
-0.0000000000000006
 10
135.0970579100888
 20
61.36972045494529
 30
-0.0000000000000006
 10
135.1567771759224
 20
61.34080791331908
 30
-0.0000000000000006
 10
135.1760950843319
 20
61.33092791269499
 30
-0.0000000000000006
 10
135.2134234380272
 20
61.31076310974129
 30
-0.0000000000000006
 10
135.2314601010687
 20
61.30046596075651
 30
-0.0000000000000006
 10
135.3186425303567
 20
61.24787935666679
 30
-0.0000000000000006
 10
135.3788756817642
 20
61.2022665962487
 30
-0.0000000000000006
 10
135.4318064107933
 20
61.15171880942875
 30
-0.0000000000000006
 10
135.4330981584039
 20
61.15047768757655
 30
-0.0000000000000006
 10
135.4343844621337
 20
61.14923423713362
 30
-0.0000000000000006
  0
SPLINE
  5
107
330
1F
100
AcDbEntity
  8
1
  6
Continuous
 62
     1
370
    13
100
AcDbSpline
210
0.0
220
0.0
230
1.0
 70
     8
 71
     3
 72
    46
 73
    42
 74
     0
 42
0.000000001
 43
0.0000000001
 40
0.0
 40
0.0
 40
0.0
 40
0.0
 40
0.0729833743048086
 40
0.0729833743048086
 40
0.1459667486096172
 40
0.1459667486096172
 40
0.1642125921858192
 40
0.1642125921858192
 40
0.1824584357620213
 40
0.1824584357620213
 40
0.2189501229144275
 40
0.2189501229144275
 40
0.2919334972192388
 40
0.2919334972192388
 40
0.3649168715240502
 40
0.3649168715240502
 40
0.3831627151002541
 40
0.3831627151002541
 40
0.401408558676458
 40
0.4379002458288647
 40
0.4743919329812714
 40
0.4743919329812714
 40
0.4926377765574755
 40
0.4926377765574755
 40
0.5108836201336796
 40
0.5108836201336796
 40
0.5838669944384929
 40
0.5838669944384929
 40
0.6568503687433062
 40
0.6568503687433062
 40
0.7298337430481193
 40
0.7298337430481193
 40
0.7663254302005265
 40
0.7663254302005265
 40
0.8028171173529336
 40
0.8028171173529336
 40
0.8393088045053407
 40
0.8393088045053407
 40
0.8758004916577479
 40
0.8758004916577479
 40
1.0
 40
1.0
 40
1.0
 40
1.0
 10
107.2849552377592
 20
41.45081112851585
 30
0.0000000000000006
 10
107.2169435502441
 20
41.4694370456124
 30
0.0000000000000006
 10
107.1478193462787
 20
41.487453674494
 30
0.0000000000000006
 10
107.0069527488661
 20
41.52229923656055
 30
0.0000000000000006
 10
106.9352106459688
 20
41.53912559111426
 30
0.0000000000000006
 10
106.8436114638742
 20
41.55952121513437
 30
0.0000000000000006
 10
106.8251953816139
 20
41.5635689387652
 30
0.0000000000000006
 10
106.7881628917652
 20
41.5716063768342
 30
0.0000000000000006
 10
106.7695200407406
 20
41.57560164215288
 30
0.0000000000000006
 10
106.7135133232206
 20
41.58745980698358
 30
0.0000000000000006
 10
106.6760661421619
 20
41.59519628029942
 30
0.0000000000000006
 10
106.5635131917967
 20
41.61797203254003
 30
0.0000000000000006
 10
106.4895000154375
 20
41.63231184873016
 30
0.0000000000000006
 10
106.3436090324789
 20
41.66007013601675
 30
0.0000000000000006
 10
106.2717307878443
 20
41.67348946951965
 30
0.0000000000000006
 10
106.1832771933971
 20
41.69023348254539
 30
0.0000000000000006
 10
106.1656310863495
 20
41.69358584997342
 30
0.0000000000000006
 10
106.1307112139016
 20
41.70025811954113
 30
0.0000000000000006
 10
106.0788221745357
 20
41.7102304263894
 30
0.0000000000000006
 10
105.9947182937196
 20
41.72678552135071
 30
0.0000000000000006
 10
105.9298320162051
 20
41.74018641513499
 30
0.0000000000000006
 10
105.8820222564242
 20
41.75037427553845
 30
0.0000000000000006
 10
105.866235909964
 20
41.7537916129138
 30
0.0000000000000006
 10
105.8351251417024
 20
41.76064284303237
 30
0.0000000000000006
 10
105.8197764163196
 20
41.76408187010526
 30
0.0000000000000006
 10
105.7440175893182
 20
41.7813727398725
 30
0.0000000000000006
 10
105.6865450667064
 20
41.79551941790881
 30
0.0000000000000006
 10
105.5769255570988
 20
41.82503767979791
 30
0.0000000000000006
 10
105.5247832241846
 20
41.84040675573185
 30
0.0000000000000006
 10
105.4252318606177
 20
41.8728136335636
 30
0.0000000000000006
 10
105.3778253878284
 20
41.88984993245093
 30
0.0000000000000006
 10
105.3099955882367
 20
41.91692336964408
 30
0.0000000000000006
 10
105.2879692143697
 20
41.92618754783952
 30
0.0000000000000006
 10
105.2451929918795
 20
41.94515732066136
 30
0.0000000000000006
 10
105.224417702843
 20
41.95487293427214
 30
0.0000000000000006
 10
105.1840438276473
 20
41.97479162215081
 30
0.0000000000000006
 10
105.1644446631012
 20
41.98499685335727
 30
0.0000000000000006
 10
105.1265731377514
 20
42.00580751605189
 30
0.0000000000000006
 10
105.108273801623
 20
42.0164257530174
 30
0.0000000000000006
 10
105.0303721684294
 20
42.06414540246382
 30
0.0000000000000006
 10
104.977143648543
 20
42.1035750472673
 30
0.0000000000000006
 10
104.9303216259347
 20
42.14564861384857
 30
0.0000000000000006
  0
SPLINE
  5
108
330
1F
100
AcDbEntity
  8
1
  6
Continuous
 62
     1
370
    13
100
AcDbSpline
210
0.0
220
0.0
230
1.0
 70
     8
 71
     3
 72
    35
 73
    31
 74
     0
 42
0.000000001
 43
0.0000000001
 40
0.0
 40
0.0
 40
0.0
 40
0.0
 40
0.0625
 40
0.0625
 40
0.1249999999999999
 40
0.1874999999999999
 40
0.1874999999999999
 40
0.2499999999999999
 40
0.2499999999999999
 40
0.3124999999999999
 40
0.3124999999999999
 40
0.3749999999999998
 40
0.3749999999999998
 40
0.4374999999999998
 40
0.4374999999999998
 40
0.4999999999999999
 40
0.5624999999999999
 40
0.5624999999999999
 40
0.6249999999999998
 40
0.6249999999999998
 40
0.6874999999999998
 40
0.6874999999999998
 40
0.7499999999999998
 40
0.7499999999999998
 40
0.8124999999999998
 40
0.8124999999999998
 40
0.8749999999999998
 40
0.9374999999999999
 40
0.9374999999999999
 40
1.0
 40
1.0
 40
1.0
 40
1.0
 10
107.2849552377592
 20
61.84232452023908
 30
-0.0000000000000006
 10
107.8220483110691
 20
61.858548497342
 30
-0.0000000000000006
 10
108.3591442654176
 20
61.87046871463835
 30
-0.0000000000000006
 10
109.4333410638783
 20
61.88700471091714
 30
-0.0000000000000006
 10
110.5075427537655
 20
61.89623378500237
 30
-0.0000000000000006
 10
111.5817521848878
 20
61.89389882942213
 30
-0.0000000000000006
 10
112.6559643058205
 20
61.88754577488324
 30
-0.0000000000000006
 10
113.19307170944
 20
61.88236281544597
 30
-0.0000000000000006
 10
114.267287887902
 20
61.86994853309208
 30
-0.0000000000000006
 10
114.8043966585306
 20
61.86272350483819
 30
-0.0000000000000006
 10
115.8786142014849
 20
61.84827091342142
 30
-0.0000000000000006
 10
116.4157229670562
 20
61.84105343996793
 30
-0.0000000000000006
 10
117.4899392449392
 20
61.82849064038387
 30
-0.0000000000000006
 10
118.0270467495155
 20
61.82315686936711
 30
-0.0000000000000006
 10
119.1012595904055
 20
61.8157283265162
 30
-0.0000000000000006
 10
120.1754702520305
 20
61.8115552184538
 30
-0.0000000000000006
 10
121.2496758506166
 20
61.8149453910035
 30
-0.0000000000000006
 10
122.3238792031013
 20
61.82169083983986
 30
-0.0000000000000006
 10
122.8609797615101
 20
61.82673340901066
 30
-0.0000000000000006
 10
123.9351794927919
 20
61.83888829167839
 30
-0.0000000000000006
 10
124.4722786733328
 20
61.84598915060898
 30
-0.0000000000000006
 10
125.546476880425
 20
61.86042090179586
 30
-0.0000000000000006
 10
126.0835759139399
 20
61.86774139154331
 30
-0.0000000000000006
 10
127.1577751984263
 20
61.88056370707233
 30
-0.0000000000000006
 10
127.6948754538957
 20
61.88605881391366
 30
-0.0000000000000006
 10
128.7690785166894
 20
61.89323700968671
 30
-0.0000000000000006
 10
129.8432841350755
 20
61.89659760446482
 30
-0.0000000000000006
 10
130.9174972601026
 20
61.88874461137046
 30
-0.0000000000000006
 10
131.9917151762549
 20
61.87373452830525
 30
-0.0000000000000006
 10
132.5288265291668
 20
61.8626520277617
 30
-0.0000000000000006
 10
133.06594072051
 20
61.84732941510173
 30
-0.0000000000000006
  0
SPLINE
  5
109
330
1F
100
AcDbEntity
  8
1
  6
Continuous
 62
     1
370
    13
100
AcDbSpline
210
0.0
220
0.0
230
1.0
 70
     8
 71
     3
 72
    35
 73
    31
 74
     0
 42
0.000000001
 43
0.0000000001
 40
0.0
 40
0.0
 40
0.0
 40
0.0
 40
0.0625000000000001
 40
0.0625000000000001
 40
0.1250000000000002
 40
0.1875000000000003
 40
0.1875000000000003
 40
0.2500000000000003
 40
0.2500000000000003
 40
0.3125000000000003
 40
0.3125000000000003
 40
0.3750000000000002
 40
0.3750000000000002
 40
0.4375000000000002
 40
0.4375000000000002
 40
0.5000000000000002
 40
0.5625000000000002
 40
0.5625000000000002
 40
0.6250000000000002
 40
0.6250000000000002
 40
0.6875000000000002
 40
0.6875000000000002
 40
0.7500000000000001
 40
0.7500000000000001
 40
0.8125000000000001
 40
0.8125000000000001
 40
0.8750000000000001
 40
0.9375000000000001
 40
0.9375000000000001
 40
1.0
 40
1.0
 40
1.0
 40
1.0
 10
133.06594072051
 20
41.44580623365322
 30
0.0000000000000006
 10
132.5288265291668
 20
41.43048362099324
 30
0.0000000000000006
 10
131.9917151762549
 20
41.41940112044969
 30
0.0000000000000006
 10
130.9174972601026
 20
41.40439103738449
 30
0.0000000000000006
 10
129.8432841352948
 20
41.39653837188443
 30
0.0000000000000006
 10
128.7690785166894
 20
41.39989863906824
 30
0.0000000000000006
 10
127.6948754538957
 20
41.40707683484128
 30
0.0000000000000006
 10
127.1577751984263
 20
41.41257194168262
 30
0.0000000000000006
 10
126.0835759139399
 20
41.42539425721163
 30
0.0000000000000006
 10
125.546476880425
 20
41.43271474695975
 30
0.0000000000000006
 10
124.4722786733328
 20
41.44714649814664
 30
0.0000000000000006
 10
123.9351794927919
 20
41.45424735707655
 30
0.0000000000000006
 10
122.8609797615101
 20
41.46640223974428
 30
0.0000000000000006
 10
122.3238792031013
 20
41.47144480891508
 30
0.0000000000000006
 10
121.2496758506166
 20
41.47819025775144
 30
0.0000000000000006
 10
120.1754702523399
 20
41.48158089246516
 30
0.0000000000000006
 10
119.1012595904055
 20
41.47740732223875
 30
0.0000000000000006
 10
118.0270467495155
 20
41.46997877938784
 30
0.0000000000000006
 10
117.4899392449392
 20
41.46464500837107
 30
0.0000000000000006
 10
116.4157229670562
 20
41.45208220878702
 30
0.0000000000000006
 10
115.8786142014849
 20
41.44486473533352
 30
0.0000000000000006
 10
114.8043966585306
 20
41.43041214391676
 30
0.0000000000000006
 10
114.267287887902
 20
41.42318711566286
 30
0.0000000000000006
 10
113.19307170944
 20
41.41077283330897
 30
0.0000000000000006
 10
112.6559643058205
 20
41.4055898738717
 30
0.0000000000000006
 10
111.5817521848878
 20
41.39923681933281
 30
0.0000000000000006
 10
110.5075427537655
 20
41.39690186375258
 30
0.0000000000000006
 10
109.4333410638783
 20
41.4061309378378
 30
0.0000000000000006
 10
108.3591442654176
 20
41.42266693411659
 30
0.0000000000000006
 10
107.8220483110691
 20
41.43458715141294
 30
0.0000000000000006
 10
107.2849552377592
 20
41.45081112851586
 30
0.0000000000000006
  0
LINE
  5
10A
330
1F
100
AcDbEntity
  8
1
  6
CENTER
 62
    30
370
    13
100
AcDbLine
 10
120.260666
 20
186.004755
 30
0.0
 11
120.260666
 21
290.004755
 31
0.0
  0
LINE
  5
10B
330
1F
100
AcDbEntity
  8
1
  6
CENTER
 62
    30
370
    13
100
AcDbLine
 10
89.260666
 20
250.004755
 30
0.0
 11
153.260666
 21
250.004755
 31
0.0
  0
ENDSEC
  0
SECTION
  2
OBJECTS
  0
DICTIONARY
  5
C
330
0
100
AcDbDictionary
281
     1
  3
ACAD_DETAILVIEWSTYLE
350
160
  3
ACAD_GROUP
350
D
  3
ACAD_LAYOUT
350
1A
  3
ACAD_MATERIAL
350
43
  3
ACAD_MLEADERSTYLE
350
6B
  3
ACAD_MLINESTYLE
350
17
  3
ACAD_PLOTSETTINGS
350
19
  3
ACAD_PLOTSTYLENAME
350
E
  3
ACAD_SCALELIST
350
47
  3
ACAD_SECTIONVIEWSTYLE
350
161
  3
ACAD_TABLESTYLE
350
69
  3
ACAD_VISUALSTYLE
350
2A
  3
ACDB_RECOMPOSE_DATA
350
15D
  3
AcDbVariableDictionary
350
11D
  0
DICTIONARY
  5
11B
330
8
100
AcDbDictionary
280
     1
281
     1
  3
ACAD_XREC_ROUNDTRIP
360
11C
  0
DICTIONARY
  5
160
102
{ACAD_REACTORS
330
C
102
}
330
C
100
AcDbDictionary
281
     1
  0
DICTIONARY
  5
D
102
{ACAD_REACTORS
330
C
102
}
330
C
100
AcDbDictionary
281
     1
  0
DICTIONARY
  5
1A
102
{ACAD_REACTORS
330
C
102
}
330
C
100
AcDbDictionary
281
     1
  3
Layout1
350
1E
  3
Layout2
350
26
  3
Model
350
22
  0
DICTIONARY
  5
43
102
{ACAD_REACTORS
330
C
102
}
330
C
100
AcDbDictionary
281
     1
  3
ByBlock
350
45
  3
ByLayer
350
44
  3
Global
350
46
  0
DICTIONARY
  5
6B
102
{ACAD_REACTORS
330
C
102
}
330
C
100
AcDbDictionary
281
     1
  3
Standard
350
6C
  0
DICTIONARY
  5
17
102
{ACAD_REACTORS
330
C
102
}
330
C
100
AcDbDictionary
281
     1
  3
Standard
350
18
  0
DICTIONARY
  5
19
102
{ACAD_REACTORS
330
C
102
}
330
C
100
AcDbDictionary
281
     1
  0
ACDBDICTIONARYWDFLT
  5
E
102
{ACAD_REACTORS
330
C
102
}
330
C
100
AcDbDictionary
281
     1
  3
Normal
350
F
100
AcDbDictionaryWithDefault
340
F
  0
DICTIONARY
  5
47
102
{ACAD_REACTORS
330
C
102
}
330
C
100
AcDbDictionary
281
     1
  3
A0
350
48
  3
A1
350
49
  3
A2
350
4A
  3
A3
350
4B
  3
A4
350
4C
  3
A5
350
4D
  3
A6
350
4E
  3
A7
350
4F
  3
A8
350
50
  3
A9
350
51
  3
B0
350
52
  3
B1
350
53
  3
B2
350
54
  3
B3
350
55
  3
B4
350
56
  3
B5
350
57
  3
B6
350
58
  3
B7
350
59
  3
B8
350
5A
  3
B9
350
5B
  3
C0
350
5C
  3
C1
350
5D
  3
C2
350
5E
  3
C3
350
5F
  3
C4
350
60
  3
C5
350
61
  3
C6
350
62
  3
C7
350
63
  3
C8
350
64
  3
C9
350
65
  3
D0
350
66
  3
D1
350
67
  3
D2
350
68
  0
DICTIONARY
  5
161
102
{ACAD_REACTORS
330
C
102
}
330
C
100
AcDbDictionary
281
     1
  0
DICTIONARY
  5
69
102
{ACAD_REACTORS
330
C
102
}
330
C
100
AcDbDictionary
281
     1
  3
Standard
350
6A
  0
DICTIONARY
  5
2A
102
{ACAD_REACTORS
330
C
102
}
330
C
100
AcDbDictionary
281
     1
  3
2dWireframe
350
2F
  3
Basic
350
32
  3
Brighten
350
36
  3
ColorChange
350
3A
  3
Conceptual
350
34
  3
Dim
350
35
  3
EdgeColorOff
350
3D
  3
Facepattern
350
39
  3
Flat
350
2B
  3
FlatWithEdges
350
2C
  3
Gouraud
350
2D
  3
GouraudWithEdges
350
2E
  3
Hidden
350
31
  3
JitterOff
350
3B
  3
Linepattern
350
38
  3
OverhangOff
350
3C
  3
Realistic
350
33
  3
Shaded
350
42
  3
Shaded with edges
350
41
  3
Shades of Gray
350
3E
  3
Sketchy
350
3F
  3
Thicken
350
37
  3
Wireframe
350
30
  3
X-Ray
350
40
  0
XRECORD
  5
15D
102
{ACAD_REACTORS
330
C
102
}
330
C
100
AcDbXrecord
280
     1
 90
        1
330
6A
  0
DICTIONARY
  5
11D
102
{ACAD_REACTORS
330
C
102
}
330
C
100
AcDbDictionary
281
     1
  3
CANNOSCALE
350
11E
  3
CMLEADERSTYLE
350
15F
  3
CTABLESTYLE
350
15E
  3
MSLTSCALE
350
11F
  3
XCLIPFRAME
350
120
  0
XRECORD
  5
11C
102
{ACAD_REACTORS
330
11B
102
}
330
11B
100
AcDbXrecord
280
     1
102
VTR_0.000_0.000_1.000_1.000_VISUALSTYLE
340
2F
102
VTR_0.000_0.000_1.000_1.000_GRIDDISPLAY
 70
     3
102
VTR_0.000_0.000_1.000_1.000_GRIDMAJOR
 70
     5
102
VTR_0.000_0.000_1.000_1.000_DEFAULTLIGHTING
280
     1
102
VTR_0.000_0.000_1.000_1.000_DEFAULTLIGHTINGTYPE
 70
     1
102
VTR_0.000_0.000_1.000_1.000_BRIGHTNESS
141
0.0
102
VTR_0.000_0.000_1.000_1.000_CONTRAST
142
0.0
102
VTR_0.000_0.000_0.500_1.000_VISUALSTYLE
340
2F
102
VTR_0.000_0.000_0.500_1.000_GRIDDISPLAY
 70
     3
102
VTR_0.000_0.000_0.500_1.000_GRIDMAJOR
 70
     5
102
VTR_0.000_0.000_0.500_1.000_DEFAULTLIGHTING
280
     1
102
VTR_0.000_0.000_0.500_1.000_DEFAULTLIGHTINGTYPE
 70
     1
102
VTR_0.000_0.000_0.500_1.000_BRIGHTNESS
141
0.0
102
VTR_0.000_0.000_0.500_1.000_CONTRAST
142
0.0
102
VTR_0.500_0.000_1.000_1.000_VISUALSTYLE
340
2F
102
VTR_0.500_0.000_1.000_1.000_GRIDDISPLAY
 70
     3
102
VTR_0.500_0.000_1.000_1.000_GRIDMAJOR
 70
     5
102
VTR_0.500_0.000_1.000_1.000_DEFAULTLIGHTING
280
     1
102
VTR_0.500_0.000_1.000_1.000_DEFAULTLIGHTINGTYPE
 70
     1
102
VTR_0.500_0.000_1.000_1.000_BRIGHTNESS
141
0.0
102
VTR_0.500_0.000_1.000_1.000_CONTRAST
142
0.0
102
VTR_0.000_0.500_1.000_1.000_VISUALSTYLE
340
2F
102
VTR_0.000_0.500_1.000_1.000_GRIDDISPLAY
 70
     3
102
VTR_0.000_0.500_1.000_1.000_GRIDMAJOR
 70
     5
102
VTR_0.000_0.500_1.000_1.000_DEFAULTLIGHTING
280
     1
102
VTR_0.000_0.500_1.000_1.000_DEFAULTLIGHTINGTYPE
 70
     1
102
VTR_0.000_0.500_1.000_1.000_BRIGHTNESS
141
0.0
102
VTR_0.000_0.500_1.000_1.000_CONTRAST
142
0.0
102
VTR_0.000_0.000_1.000_0.500_VISUALSTYLE
340
2F
102
VTR_0.000_0.000_1.000_0.500_GRIDDISPLAY
 70
     3
102
VTR_0.000_0.000_1.000_0.500_GRIDMAJOR
 70
     5
102
VTR_0.000_0.000_1.000_0.500_DEFAULTLIGHTING
280
     1
102
VTR_0.000_0.000_1.000_0.500_DEFAULTLIGHTINGTYPE
 70
     1
102
VTR_0.000_0.000_1.000_0.500_BRIGHTNESS
141
0.0
102
VTR_0.000_0.000_1.000_0.500_CONTRAST
142
0.0
102
VTR_0.000_0.500_0.500_1.000_VISUALSTYLE
340
2F
102
VTR_0.000_0.500_0.500_1.000_GRIDDISPLAY
 70
     3
102
VTR_0.000_0.500_0.500_1.000_GRIDMAJOR
 70
     5
102
VTR_0.000_0.500_0.500_1.000_DEFAULTLIGHTING
280
     1
102
VTR_0.000_0.500_0.500_1.000_DEFAULTLIGHTINGTYPE
 70
     1
102
VTR_0.000_0.500_0.500_1.000_BRIGHTNESS
141
0.0
102
VTR_0.000_0.500_0.500_1.000_CONTRAST
142
0.0
102
VTR_0.000_0.000_0.500_0.500_VISUALSTYLE
340
2F
102
VTR_0.000_0.000_0.500_0.500_GRIDDISPLAY
 70
     3
102
VTR_0.000_0.000_0.500_0.500_GRIDMAJOR
 70
     5
102
VTR_0.000_0.000_0.500_0.500_DEFAULTLIGHTING
280
     1
102
VTR_0.000_0.000_0.500_0.500_DEFAULTLIGHTINGTYPE
 70
     1
102
VTR_0.000_0.000_0.500_0.500_BRIGHTNESS
141
0.0
102
VTR_0.000_0.000_0.500_0.500_CONTRAST
142
0.0
102
VTR_0.500_0.000_1.000_0.500_VISUALSTYLE
340
2F
102
VTR_0.500_0.000_1.000_0.500_GRIDDISPLAY
 70
     3
102
VTR_0.500_0.000_1.000_0.500_GRIDMAJOR
 70
     5
102
VTR_0.500_0.000_1.000_0.500_DEFAULTLIGHTING
280
     1
102
VTR_0.500_0.000_1.000_0.500_DEFAULTLIGHTINGTYPE
 70
     1
102
VTR_0.500_0.000_1.000_0.500_BRIGHTNESS
141
0.0
102
VTR_0.500_0.000_1.000_0.500_CONTRAST
142
0.0
102
VTR_0.500_0.500_1.000_1.000_VISUALSTYLE
340
2F
102
VTR_0.500_0.500_1.000_1.000_GRIDDISPLAY
 70
     3
102
VTR_0.500_0.500_1.000_1.000_GRIDMAJOR
 70
     5
102
VTR_0.500_0.500_1.000_1.000_DEFAULTLIGHTING
280
     1
102
VTR_0.500_0.500_1.000_1.000_DEFAULTLIGHTINGTYPE
 70
     1
102
VTR_0.500_0.500_1.000_1.000_BRIGHTNESS
141
0.0
102
VTR_0.500_0.500_1.000_1.000_CONTRAST
142
0.0
102
VTR_0.000_0.500_0.333_1.000_VISUALSTYLE
340
2F
102
VTR_0.000_0.500_0.333_1.000_GRIDDISPLAY
 70
     3
102
VTR_0.000_0.500_0.333_1.000_GRIDMAJOR
 70
     5
102
VTR_0.000_0.500_0.333_1.000_DEFAULTLIGHTING
280
     1
102
VTR_0.000_0.500_0.333_1.000_DEFAULTLIGHTINGTYPE
 70
     1
102
VTR_0.000_0.500_0.333_1.000_BRIGHTNESS
141
0.0
102
VTR_0.000_0.500_0.333_1.000_CONTRAST
142
0.0
102
VTR_0.000_0.000_0.333_0.500_VISUALSTYLE
340
2F
102
VTR_0.000_0.000_0.333_0.500_GRIDDISPLAY
 70
     3
102
VTR_0.000_0.000_0.333_0.500_GRIDMAJOR
 70
     5
102
VTR_0.000_0.000_0.333_0.500_DEFAULTLIGHTING
280
     1
102
VTR_0.000_0.000_0.333_0.500_DEFAULTLIGHTINGTYPE
 70
     1
102
VTR_0.000_0.000_0.333_0.500_BRIGHTNESS
141
0.0
102
VTR_0.000_0.000_0.333_0.500_CONTRAST
142
0.0
102
VTR_0.333_0.500_0.667_1.000_VISUALSTYLE
340
2F
102
VTR_0.333_0.500_0.667_1.000_GRIDDISPLAY
 70
     3
102
VTR_0.333_0.500_0.667_1.000_GRIDMAJOR
 70
     5
102
VTR_0.333_0.500_0.667_1.000_DEFAULTLIGHTING
280
     1
102
VTR_0.333_0.500_0.667_1.000_DEFAULTLIGHTINGTYPE
 70
     1
102
VTR_0.333_0.500_0.667_1.000_BRIGHTNESS
141
0.0
102
VTR_0.333_0.500_0.667_1.000_CONTRAST
142
0.0
102
VTR_0.333_0.000_0.667_0.500_VISUALSTYLE
340
2F
102
VTR_0.333_0.000_0.667_0.500_GRIDDISPLAY
 70
     3
102
VTR_0.333_0.000_0.667_0.500_GRIDMAJOR
 70
     5
102
VTR_0.333_0.000_0.667_0.500_DEFAULTLIGHTING
280
     1
102
VTR_0.333_0.000_0.667_0.500_DEFAULTLIGHTINGTYPE
 70
     1
102
VTR_0.333_0.000_0.667_0.500_BRIGHTNESS
141
0.0
102
VTR_0.333_0.000_0.667_0.500_CONTRAST
142
0.0
102
VTR_0.667_0.500_1.000_1.000_VISUALSTYLE
340
2F
102
VTR_0.667_0.500_1.000_1.000_GRIDDISPLAY
 70
     3
102
VTR_0.667_0.500_1.000_1.000_GRIDMAJOR
 70
     5
102
VTR_0.667_0.500_1.000_1.000_DEFAULTLIGHTING
280
     1
102
VTR_0.667_0.500_1.000_1.000_DEFAULTLIGHTINGTYPE
 70
     1
102
VTR_0.667_0.500_1.000_1.000_BRIGHTNESS
141
0.0
102
VTR_0.667_0.500_1.000_1.000_CONTRAST
142
0.0
102
VTR_0.667_0.000_1.000_0.500_VISUALSTYLE
340
2F
102
VTR_0.667_0.000_1.000_0.500_GRIDDISPLAY
 70
     3
102
VTR_0.667_0.000_1.000_0.500_GRIDMAJOR
 70
     5
102
VTR_0.667_0.000_1.000_0.500_DEFAULTLIGHTING
280
     1
102
VTR_0.667_0.000_1.000_0.500_DEFAULTLIGHTINGTYPE
 70
     1
102
VTR_0.667_0.000_1.000_0.500_BRIGHTNESS
141
0.0
102
VTR_0.667_0.000_1.000_0.500_CONTRAST
142
0.0
  0
LAYOUT
  5
1E
102
{ACAD_REACTORS
330
1A
102
}
330
1A
100
AcDbPlotSettings
  1

  2
none_device
  4

  6

 40
0.0
 41
0.0
 42
0.0
 43
0.0
 44
0.0
 45
0.0
 46
0.0
 47
0.0
 48
0.0
 49
0.0
140
0.0
141
0.0
142
1.0
143
1.0
 70
   688
 72
     0
 73
     0
 74
     5
  7

 75
    16
 76
     0
 77
     2
 78
   300
147
1.0
148
0.0
149
0.0
100
AcDbLayout
  1
Layout1
 70
     1
 71
     1
 10
-0.5
 20
-0.5
 11
5.0
 21
5.0
 12
0.0
 22
0.0
 32
0.0
 14
-0.5
 24
-0.5
 34
-0.5
 15
5.0
 25
5.0
 35
5.0
146
0.0
 13
0.0
 23
0.0
 33
0.0
 16
1.0
 26
0.0
 36
0.0
 17
0.0
 27
1.0
 37
0.0
 76
     0
330
1B
  0
LAYOUT
  5
26
102
{ACAD_REACTORS
330
1A
102
}
330
1A
100
AcDbPlotSettings
  1

  2
none_device
  4

  6

 40
0.0
 41
0.0
 42
0.0
 43
0.0
 44
0.0
 45
0.0
 46
0.0
 47
0.0
 48
0.0
 49
0.0
140
0.0
141
0.0
142
1.0
143
1.0
 70
   688
 72
     0
 73
     0
 74
     5
  7

 75
    16
 76
     0
 77
     2
 78
   300
147
1.0
148
0.0
149
0.0
100
AcDbLayout
  1
Layout2
 70
     1
 71
     2
 10
0.0
 20
0.0
 11
0.0
 21
0.0
 12
0.0
 22
0.0
 32
0.0
 14
0.0
 24
0.0
 34
0.0
 15
0.0
 25
0.0
 35
0.0
146
0.0
 13
0.0
 23
0.0
 33
0.0
 16
1.0
 26
0.0
 36
0.0
 17
0.0
 27
1.0
 37
0.0
 76
     0
330
23
  0
LAYOUT
  5
22
102
{ACAD_REACTORS
330
1A
102
}
330
1A
100
AcDbPlotSettings
  1

  2
none_device
  4
Letter_(8.50_x_11.00_Inches)
  6

 40
6.35
 41
6.35
 42
6.350005
 43
6.350005
 44
215.9
 45
279.4
 46
0.0
 47
0.0
 48
0.0
 49
0.0
140
0.0
141
0.0
142
1.0
143
1.0
 70
  1712
 72
     0
 73
     0
 74
     0
  7

 75
     0
 76
     0
 77
     2
 78
   300
147
1.0
148
0.0
149
0.0
100
AcDbLayout
  1
Model
 70
     1
 71
     0
 10
-0.5
 20
-0.5
 11
5.0
 21
5.0
 12
0.0
 22
0.0
 32
0.0
 14
-0.5
 24
-0.5
 34
-0.5
 15
5.0
 25
5.0
 35
5.0
146
0.0
 13
0.0
 23
0.0
 33
0.0
 16
1.0
 26
0.0
 36
0.0
 17
0.0
 27
1.0
 37
0.0
 76
     0
330
1F
331
29
  0
MATERIAL
  5
45
102
{ACAD_REACTORS
330
43
102
}
102
{ACAD_XDICTIONARY
360
153
102
}
330
43
100
AcDbMaterial
  1
ByBlock
  0
MATERIAL
  5
44
102
{ACAD_REACTORS
330
43
102
}
102
{ACAD_XDICTIONARY
360
151
102
}
330
43
100
AcDbMaterial
  1
ByLayer
  0
MATERIAL
  5
46
102
{ACAD_REACTORS
330
43
102
}
102
{ACAD_XDICTIONARY
360
155
102
}
330
43
100
AcDbMaterial
  1
Global
  0
MLEADERSTYLE
  5
6C
102
{ACAD_REACTORS
330
6B
102
}
102
{ACAD_XDICTIONARY
360
15B
102
}
330
6B
100
AcDbMLeaderStyle
170
     2
171
     1
172
     0
 90
        2
 40
0.0
 41
0.0
173
     1
 91
-1056964608
340
14
 92
       -2
290
     1
 42
0.09
291
     1
 43
0.36
  3
Standard
341
0
 44
0.18
300

342
11
174
     1
178
     6
175
     1
176
     0
 93
-1056964608
 45
0.18
292
     0
297
     0
 46
0.18
343
0
 94
-1056964608
 47
1.0
 49
1.0
140
1.0
293
     1
141
0.0
294
     1
177
     0
142
1.0
295
     0
296
     0
143
0.125
1001
ACAD_MLEADERVER
1070
     2
  0
MLINESTYLE
  5
18
102
{ACAD_REACTORS
330
17
102
}
330
17
100
AcDbMlineStyle
  2
Standard
 70
     0
  3

 62
   256
 51
90.0
 52
90.0
 71
     2
 49
0.5
 62
   256
  6
BYLAYER
 49
-0.5
 62
   256
  6
BYLAYER
  0
ACDBPLACEHOLDER
  5
F
102
{ACAD_REACTORS
330
E
102
}
330
E
  0
SCALE
  5
48
102
{ACAD_REACTORS
330
47
102
}
330
47
100
AcDbScale
 70
     0
300
1:1
140
1.0
141
1.0
290
     1
  0
SCALE
  5
49
102
{ACAD_REACTORS
330
47
102
}
330
47
100
AcDbScale
 70
     0
300
1:2
140
1.0
141
2.0
290
     0
  0
SCALE
  5
4A
102
{ACAD_REACTORS
330
47
102
}
330
47
100
AcDbScale
 70
     0
300
1:4
140
1.0
141
4.0
290
     0
  0
SCALE
  5
4B
102
{ACAD_REACTORS
330
47
102
}
330
47
100
AcDbScale
 70
     0
300
1:5
140
1.0
141
5.0
290
     0
  0
SCALE
  5
4C
102
{ACAD_REACTORS
330
47
102
}
330
47
100
AcDbScale
 70
     0
300
1:8
140
1.0
141
8.0
290
     0
  0
SCALE
  5
4D
102
{ACAD_REACTORS
330
47
102
}
330
47
100
AcDbScale
 70
     0
300
1:10
140
1.0
141
10.0
290
     0
  0
SCALE
  5
4E
102
{ACAD_REACTORS
330
47
102
}
330
47
100
AcDbScale
 70
     0
300
1:16
140
1.0
141
16.0
290
     0
  0
SCALE
  5
4F
102
{ACAD_REACTORS
330
47
102
}
330
47
100
AcDbScale
 70
     0
300
1:20
140
1.0
141
20.0
290
     0
  0
SCALE
  5
50
102
{ACAD_REACTORS
330
47
102
}
330
47
100
AcDbScale
 70
     0
300
1:30
140
1.0
141
30.0
290
     0
  0
SCALE
  5
51
102
{ACAD_REACTORS
330
47
102
}
330
47
100
AcDbScale
 70
     0
300
1:40
140
1.0
141
40.0
290
     0
  0
SCALE
  5
52
102
{ACAD_REACTORS
330
47
102
}
330
47
100
AcDbScale
 70
     0
300
1:50
140
1.0
141
50.0
290
     0
  0
SCALE
  5
53
102
{ACAD_REACTORS
330
47
102
}
330
47
100
AcDbScale
 70
     0
300
1:100
140
1.0
141
100.0
290
     0
  0
SCALE
  5
54
102
{ACAD_REACTORS
330
47
102
}
330
47
100
AcDbScale
 70
     0
300
2:1
140
2.0
141
1.0
290
     0
  0
SCALE
  5
55
102
{ACAD_REACTORS
330
47
102
}
330
47
100
AcDbScale
 70
     0
300
4:1
140
4.0
141
1.0
290
     0
  0
SCALE
  5
56
102
{ACAD_REACTORS
330
47
102
}
330
47
100
AcDbScale
 70
     0
300
8:1
140
8.0
141
1.0
290
     0
  0
SCALE
  5
57
102
{ACAD_REACTORS
330
47
102
}
330
47
100
AcDbScale
 70
     0
300
10:1
140
10.0
141
1.0
290
     0
  0
SCALE
  5
58
102
{ACAD_REACTORS
330
47
102
}
330
47
100
AcDbScale
 70
     0
300
100:1
140
100.0
141
1.0
290
     0
  0
SCALE
  5
59
102
{ACAD_REACTORS
330
47
102
}
330
47
100
AcDbScale
 70
     0
300
1/128" = 1'-0"
140
0.007812
141
12.0
290
     0
  0
SCALE
  5
5A
102
{ACAD_REACTORS
330
47
102
}
330
47
100
AcDbScale
 70
     0
300
1/64" = 1'-0"
140
0.015625
141
12.0
290
     0
  0
SCALE
  5
5B
102
{ACAD_REACTORS
330
47
102
}
330
47
100
AcDbScale
 70
     0
300
1/32" = 1'-0"
140
0.03125
141
12.0
290
     0
  0
SCALE
  5
5C
102
{ACAD_REACTORS
330
47
102
}
330
47
100
AcDbScale
 70
     0
300
1/16" = 1'-0"
140
0.0625
141
12.0
290
     0
  0
SCALE
  5
5D
102
{ACAD_REACTORS
330
47
102
}
330
47
100
AcDbScale
 70
     0
300
3/32" = 1'-0"
140
0.09375
141
12.0
290
     0
  0
SCALE
  5
5E
102
{ACAD_REACTORS
330
47
102
}
330
47
100
AcDbScale
 70
     0
300
1/8" = 1'-0"
140
0.125
141
12.0
290
     0
  0
SCALE
  5
5F
102
{ACAD_REACTORS
330
47
102
}
330
47
100
AcDbScale
 70
     0
300
3/16" = 1'-0"
140
0.1875
141
12.0
290
     0
  0
SCALE
  5
60
102
{ACAD_REACTORS
330
47
102
}
330
47
100
AcDbScale
 70
     0
300
1/4" = 1'-0"
140
0.25
141
12.0
290
     0
  0
SCALE
  5
61
102
{ACAD_REACTORS
330
47
102
}
330
47
100
AcDbScale
 70
     0
300
3/8" = 1'-0"
140
0.375
141
12.0
290
     0
  0
SCALE
  5
62
102
{ACAD_REACTORS
330
47
102
}
330
47
100
AcDbScale
 70
     0
300
1/2" = 1'-0"
140
0.5
141
12.0
290
     0
  0
SCALE
  5
63
102
{ACAD_REACTORS
330
47
102
}
330
47
100
AcDbScale
 70
     0
300
3/4" = 1'-0"
140
0.75
141
12.0
290
     0
  0
SCALE
  5
64
102
{ACAD_REACTORS
330
47
102
}
330
47
100
AcDbScale
 70
     0
300
1" = 1'-0"
140
1.0
141
12.0
290
     0
  0
SCALE
  5
65
102
{ACAD_REACTORS
330
47
102
}
330
47
100
AcDbScale
 70
     0
300
1-1/2" = 1'-0"
140
1.5
141
12.0
290
     0
  0
SCALE
  5
66
102
{ACAD_REACTORS
330
47
102
}
330
47
100
AcDbScale
 70
     0
300
3" = 1'-0"
140
3.0
141
12.0
290
     0
  0
SCALE
  5
67
102
{ACAD_REACTORS
330
47
102
}
330
47
100
AcDbScale
 70
     0
300
6" = 1'-0"
140
6.0
141
12.0
290
     0
  0
SCALE
  5
68
102
{ACAD_REACTORS
330
47
102
}
330
47
100
AcDbScale
 70
     0
300
1'-0" = 1'-0"
140
12.0
141
12.0
290
     0
  0
TABLESTYLE
  5
6A
102
{ACAD_REACTORS
330
69
102
}
102
{ACAD_XDICTIONARY
360
157
102
}
330
69
100
AcDbTableStyle
  3
Standard
 70
     0
 71
     0
 40
0.06
 41
0.06
280
     0
281
     0
  7
Standard
140
0.18
170
     2
 62
     0
 63
   257
283
     0
274
    -2
284
     1
 64
     0
275
    -2
285
     1
 65
     0
276
    -2
286
     1
 66
     0
277
    -2
287
     1
 67
     0
278
    -2
288
     1
 68
     0
279
    -2
289
     1
 69
     0
  7
Standard
140
0.25
170
     5
 62
     0
 63
   257
283
     0
274
    -2
284
     1
 64
     0
275
    -2
285
     1
 65
     0
276
    -2
286
     1
 66
     0
277
    -2
287
     1
 67
     0
278
    -2
288
     1
 68
     0
279
    -2
289
     1
 69
     0
  7
Standard
140
0.18
170
     5
 62
     0
 63
   257
283
     0
274
    -2
284
     1
 64
     0
275
    -2
285
     1
 65
     0
276
    -2
286
     1
 66
     0
277
    -2
287
     1
 67
     0
278
    -2
288
     1
 68
     0
279
    -2
289
     1
 69
     0
  0
VISUALSTYLE
  5
2F
102
{ACAD_REACTORS
330
2A
102
}
102
{ACAD_XDICTIONARY
360
129
102
}
330
2A
100
AcDbVisualStyle
  2
2dWireframe
 70
     4
 71
     0
 72
     2
 73
     0
 90
        0
 40
0.6
 41
30.0
 62
     5
 63
     7
421
 16777215
 74
     1
 91
        4
 64
     7
 65
   257
 75
     1
175
     1
 42
1.0
 92
        0
 66
   257
 43
1.0
 76
     1
 77
     6
 78
     2
 67
     7
 79
     5
170
     0
171
     0
290
     0
174
     0
 93
        1
 44
0.0
173
     0
291
     0
 45
0.0
1001
ACAD
1000
AcDbSavedByObjectVersion
1070
     0
  0
VISUALSTYLE
  5
32
102
{ACAD_REACTORS
330
2A
102
}
102
{ACAD_XDICTIONARY
360
12F
102
}
330
2A
100
AcDbVisualStyle
  2
Basic
 70
     7
 71
     1
 72
     0
 73
     1
 90
        0
 40
0.6
 41
30.0
 62
     5
 63
     7
421
 16777215
 74
     0
 91
        4
 64
     7
 65
   257
 75
     1
175
     1
 42
1.0
 92
        8
 66
     7
 43
1.0
 76
     1
 77
     6
 78
     2
 67
     7
 79
     5
170
     0
171
     0
290
     0
174
     0
 93
        1
 44
0.0
173
     0
291
     1
 45
0.0
1001
ACAD
1000
AcDbSavedByObjectVersion
1070
     0
  0
VISUALSTYLE
  5
36
102
{ACAD_REACTORS
330
2A
102
}
102
{ACAD_XDICTIONARY
360
137
102
}
330
2A
100
AcDbVisualStyle
  2
Brighten
 70
    12
 71
     2
 72
     2
 73
     0
 90
        0
 40
0.6
 41
30.0
 62
     5
 63
     7
421
 16777215
 74
     1
 91
        4
 64
     7
 65
   257
 75
     1
175
     1
 42
1.0
 92
        8
 66
     7
 43
1.0
 76
     1
 77
     6
 78
     2
 67
     7
 79
     5
170
     0
171
     0
290
     0
174
     0
 93
        1
 44
50.0
173
     0
291
     1
 45
0.0
1001
ACAD
1000
AcDbSavedByObjectVersion
1070
     0
  0
VISUALSTYLE
  5
3A
102
{ACAD_REACTORS
330
2A
102
}
102
{ACAD_XDICTIONARY
360
13F
102
}
330
2A
100
AcDbVisualStyle
  2
ColorChange
 70
    16
 71
     2
 72
     2
 73
     3
 90
        0
 40
0.6
 41
30.0
 62
     5
 63
     8
421
  8421504
 74
     1
 91
        4
 64
     7
 65
   257
 75
     1
175
     1
 42
1.0
 92
        8
 66
     8
424
  8421504
 43
1.0
 76
     1
 77
     6
 78
     2
 67
     7
 79
     5
170
     0
171
     0
290
     0
174
     0
 93
        1
 44
0.0
173
     0
291
     1
 45
0.0
1001
ACAD
1000
AcDbSavedByObjectVersion
1070
     0
  0
VISUALSTYLE
  5
34
102
{ACAD_REACTORS
330
2A
102
}
102
{ACAD_XDICTIONARY
360
133
102
}
330
2A
100
AcDbVisualStyle
  2
Conceptual
 70
     9
 71
     3
 72
     2
 73
     0
 90
        0
 40
0.6
 41
30.0
 62
     5
 63
     7
421
 16777215
 74
     2
 91
        2
 64
     7
 65
   257
 75
     1
175
     1
 42
179.0
 92
        8
 66
     7
 43
1.0
 76
     1
 77
     6
 78
     2
 67
     7
 79
     3
170
     0
171
     0
290
     0
174
     0
 93
        1
 44
0.0
173
     0
291
     0
 45
0.0
1001
ACAD
1000
AcDbSavedByObjectVersion
1070
     0
  0
VISUALSTYLE
  5
35
102
{ACAD_REACTORS
330
2A
102
}
102
{ACAD_XDICTIONARY
360
135
102
}
330
2A
100
AcDbVisualStyle
  2
Dim
 70
    11
 71
     2
 72
     2
 73
     0
 90
        0
 40
0.6
 41
30.0
 62
     5
 63
     7
421
 16777215
 74
     1
 91
        4
 64
     7
 65
   257
 75
     1
175
     1
 42
1.0
 92
        8
 66
     7
 43
1.0
 76
     1
 77
     6
 78
     2
 67
     7
 79
     5
170
     0
171
     0
290
     0
174
     0
 93
        1
 44
-50.0
173
     0
291
     1
 45
0.0
1001
ACAD
1000
AcDbSavedByObjectVersion
1070
     0
  0
VISUALSTYLE
  5
3D
102
{ACAD_REACTORS
330
2A
102
}
102
{ACAD_XDICTIONARY
360
145
102
}
330
2A
100
AcDbVisualStyle
  2
EdgeColorOff
 70
    22
 71
     2
 72
     2
 73
     0
 90
        0
 40
0.6
 41
30.0
 62
     5
 63
     7
421
 16777215
 74
     1
 91
        4
 64
     7
 65
   257
 75
     1
175
     1
 42
1.0
 92
        8
 66
     7
 43
1.0
 76
     1
 77
     6
 78
     2
 67
     7
 79
     5
170
     0
171
     0
290
     0
174
     0
 93
        1
 44
0.0
173
     0
291
     1
 45
0.0
1001
ACAD
1000
AcDbSavedByObjectVersion
1070
     0
  0
VISUALSTYLE
  5
39
102
{ACAD_REACTORS
330
2A
102
}
102
{ACAD_XDICTIONARY
360
13D
102
}
330
2A
100
AcDbVisualStyle
  2
Facepattern
 70
    15
 71
     2
 72
     2
 73
     0
 90
        0
 40
0.6
 41
30.0
 62
     5
 63
     7
421
 16777215
 74
     1
 91
        4
 64
     7
 65
   257
 75
     1
175
     1
 42
1.0
 92
        8
 66
     7
 43
1.0
 76
     1
 77
     6
 78
     2
 67
     7
 79
     5
170
     0
171
     0
290
     0
174
     0
 93
        1
 44
0.0
173
     0
291
     1
 45
0.0
1001
ACAD
1000
AcDbSavedByObjectVersion
1070
     0
  0
VISUALSTYLE
  5
2B
102
{ACAD_REACTORS
330
2A
102
}
102
{ACAD_XDICTIONARY
360
121
102
}
330
2A
100
AcDbVisualStyle
  2
Flat
 70
     0
 71
     2
 72
     1
 73
     1
 90
        2
 40
0.6
 41
30.0
 62
     5
 63
     7
421
 16777215
 74
     0
 91
        0
 64
     7
 65
   257
 75
     1
175
     1
 42
1.0
 92
        8
 66
     7
 43
1.0
 76
     1
 77
     6
 78
     2
 67
     7
 79
     5
170
     0
171
     0
290
     0
174
     0
 93
       13
 44
0.0
173
     0
291
     1
 45
0.0
1001
ACAD
1000
AcDbSavedByObjectVersion
1070
     0
  0
VISUALSTYLE
  5
2C
102
{ACAD_REACTORS
330
2A
102
}
102
{ACAD_XDICTIONARY
360
123
102
}
330
2A
100
AcDbVisualStyle
  2
FlatWithEdges
 70
     1
 71
     2
 72
     1
 73
     1
 90
        2
 40
0.6
 41
30.0
 62
     5
 63
     7
421
 16777215
 74
     1
 91
        0
 64
     7
 65
   257
 75
     1
175
     1
 42
1.0
 92
        0
 66
   257
 43
1.0
 76
     1
 77
     6
 78
     2
 67
     7
 79
     5
170
     0
171
     0
290
     0
174
     0
 93
       13
 44
0.0
173
     0
291
     1
 45
0.0
1001
ACAD
1000
AcDbSavedByObjectVersion
1070
     0
  0
VISUALSTYLE
  5
2D
102
{ACAD_REACTORS
330
2A
102
}
102
{ACAD_XDICTIONARY
360
125
102
}
330
2A
100
AcDbVisualStyle
  2
Gouraud
 70
     2
 71
     2
 72
     2
 73
     1
 90
        2
 40
0.6
 41
30.0
 62
     5
 63
     7
421
 16777215
 74
     0
 91
        0
 64
     7
 65
   257
 75
     1
175
     1
 42
1.0
 92
        0
 66
     7
 43
1.0
 76
     1
 77
     6
 78
     2
 67
     7
 79
     5
170
     0
171
     0
290
     0
174
     0
 93
       13
 44
0.0
173
     0
291
     1
 45
0.0
1001
ACAD
1000
AcDbSavedByObjectVersion
1070
     0
  0
VISUALSTYLE
  5
2E
102
{ACAD_REACTORS
330
2A
102
}
102
{ACAD_XDICTIONARY
360
127
102
}
330
2A
100
AcDbVisualStyle
  2
GouraudWithEdges
 70
     3
 71
     2
 72
     2
 73
     1
 90
        2
 40
0.6
 41
30.0
 62
     5
 63
     7
421
 16777215
 74
     1
 91
        0
 64
     7
 65
   257
 75
     1
175
     1
 42
1.0
 92
        0
 66
   257
 43
1.0
 76
     1
 77
     6
 78
     2
 67
     7
 79
     5
170
     0
171
     0
290
     0
174
     0
 93
       13
 44
0.0
173
     0
291
     1
 45
0.0
1001
ACAD
1000
AcDbSavedByObjectVersion
1070
     0
  0
VISUALSTYLE
  5
31
102
{ACAD_REACTORS
330
2A
102
}
102
{ACAD_XDICTIONARY
360
12D
102
}
330
2A
100
AcDbVisualStyle
  2
Hidden
 70
     6
 71
     1
 72
     2
 73
     2
 90
        0
 40
0.6
 41
30.0
 62
     5
 63
     7
421
 16777215
 74
     2
 91
        2
 64
     7
 65
   257
 75
     2
175
     1
 42
40.0
 92
        0
 66
   257
 43
1.0
 76
     1
 77
     6
 78
     2
 67
     7
 79
     3
170
     0
171
     0
290
     0
174
     0
 93
        1
 44
0.0
173
     0
291
     0
 45
0.0
1001
ACAD
1000
AcDbSavedByObjectVersion
1070
     0
  0
VISUALSTYLE
  5
3B
102
{ACAD_REACTORS
330
2A
102
}
102
{ACAD_XDICTIONARY
360
141
102
}
330
2A
100
AcDbVisualStyle
  2
JitterOff
 70
    20
 71
     2
 72
     2
 73
     0
 90
        0
 40
0.6
 41
30.0
 62
     5
 63
     7
421
 16777215
 74
     1
 91
        4
 64
     7
 65
   257
 75
     1
175
     1
 42
1.0
 92
       10
 66
     7
 43
1.0
 76
     1
 77
     6
 78
     2
 67
     7
 79
     5
170
     0
171
     0
290
     0
174
     0
 93
        1
 44
0.0
173
     0
291
     1
 45
0.0
1001
ACAD
1000
AcDbSavedByObjectVersion
1070
     0
  0
VISUALSTYLE
  5
38
102
{ACAD_REACTORS
330
2A
102
}
102
{ACAD_XDICTIONARY
360
13B
102
}
330
2A
100
AcDbVisualStyle
  2
Linepattern
 70
    14
 71
     2
 72
     2
 73
     0
 90
        0
 40
0.6
 41
30.0
 62
     5
 63
     7
421
 16777215
 74
     1
 91
        4
 64
     7
 65
   257
 75
     7
175
     7
 42
1.0
 92
        8
 66
     7
 43
1.0
 76
     1
 77
     6
 78
     2
 67
     7
 79
     5
170
     0
171
     0
290
     0
174
     0
 93
        1
 44
0.0
173
     0
291
     1
 45
0.0
1001
ACAD
1000
AcDbSavedByObjectVersion
1070
     0
  0
VISUALSTYLE
  5
3C
102
{ACAD_REACTORS
330
2A
102
}
102
{ACAD_XDICTIONARY
360
143
102
}
330
2A
100
AcDbVisualStyle
  2
OverhangOff
 70
    21
 71
     2
 72
     2
 73
     0
 90
        0
 40
0.6
 41
30.0
 62
     5
 63
     7
421
 16777215
 74
     1
 91
        4
 64
     7
 65
   257
 75
     1
175
     1
 42
1.0
 92
        9
 66
     7
 43
1.0
 76
     1
 77
     6
 78
     2
 67
     7
 79
     5
170
     0
171
     0
290
     0
174
     0
 93
        1
 44
0.0
173
     0
291
     1
 45
0.0
1001
ACAD
1000
AcDbSavedByObjectVersion
1070
     0
  0
VISUALSTYLE
  5
33
102
{ACAD_REACTORS
330
2A
102
}
102
{ACAD_XDICTIONARY
360
131
102
}
330
2A
100
AcDbVisualStyle
  2
Realistic
 70
     8
 71
     2
 72
     3
 73
     0
 90
        2
 40
0.6
 41
30.0
 62
     5
 63
     7
421
 16777215
 74
     0
 91
        0
 64
     7
 65
   257
 75
     1
175
     1
 42
1.0
 92
        8
 66
   257
 43
1.0
 76
     1
 77
     6
 78
     2
 67
     7
 79
     3
170
     0
171
     0
290
     0
174
     0
 93
       13
 44
0.0
173
     0
291
     0
 45
0.0
1001
ACAD
1000
AcDbSavedByObjectVersion
1070
     0
  0
VISUALSTYLE
  5
42
102
{ACAD_REACTORS
330
2A
102
}
102
{ACAD_XDICTIONARY
360
14F
102
}
330
2A
100
AcDbVisualStyle
  2
Shaded
 70
    27
 71
     2
 72
     2
 73
     1
 90
        2
 40
0.6
 41
30.0
 62
     5
 63
     7
421
 16777215
 74
     0
 91
        4
 64
     7
 65
   257
 75
     1
175
     1
 42
1.0
 92
        8
 66
   257
 43
1.0
 76
     1
 77
     6
 78
     2
 67
     8
425
  7895160
 79
     3
170
     0
171
     0
290
     0
174
     0
 93
        5
 44
0.0
173
     0
291
     0
 45
0.0
1001
ACAD
1000
AcDbSavedByObjectVersion
1070
     0
  0
VISUALSTYLE
  5
41
102
{ACAD_REACTORS
330
2A
102
}
102
{ACAD_XDICTIONARY
360
14D
102
}
330
2A
100
AcDbVisualStyle
  2
Shaded with edges
 70
    26
 71
     2
 72
     2
 73
     1
 90
        2
 40
0.6
 41
30.0
 62
     5
 63
     7
421
 16777215
 74
     1
 91
       10
 64
     7
 65
   257
 75
     2
175
     1
 42
1.0
 92
        8
 66
   257
 43
1.0
 76
     1
 77
     6
 78
     2
 67
     7
 79
     3
170
     0
171
     0
290
     0
174
     0
 93
        5
 44
0.0
173
     0
291
     0
 45
0.0
1001
ACAD
1000
AcDbSavedByObjectVersion
1070
     0
  0
VISUALSTYLE
  5
3E
102
{ACAD_REACTORS
330
2A
102
}
102
{ACAD_XDICTIONARY
360
147
102
}
330
2A
100
AcDbVisualStyle
  2
Shades of Gray
 70
    23
 71
     2
 72
     2
 73
     3
 90
        0
 40
0.6
 41
30.0
 62
     5
 63
     7
421
 16777215
 74
     2
 91
        2
 64
     7
 65
     7
 75
     1
175
     1
 42
40.0
 92
        8
 66
     7
 43
1.0
 76
     1
 77
     6
 78
     2
 67
     7
 79
     3
170
     0
171
     0
290
     0
174
     0
 93
        1
 44
0.0
173
     0
291
     0
 45
0.0
1001
ACAD
1000
AcDbSavedByObjectVersion
1070
     0
  0
VISUALSTYLE
  5
3F
102
{ACAD_REACTORS
330
2A
102
}
102
{ACAD_XDICTIONARY
360
149
102
}
330
2A
100
AcDbVisualStyle
  2
Sketchy
 70
    24
 71
     1
 72
     2
 73
     2
 90
        0
 40
0.6
 41
30.0
 62
     5
 63
     7
421
 16777215
 74
     2
 91
        2
 64
     7
 65
     7
 75
     1
175
     1
 42
40.0
 92
       11
 66
     7
 43
1.0
 76
     1
 77
     6
 78
     2
 67
     7
 79
     6
170
     0
171
     0
290
     0
174
     0
 93
        1
 44
0.0
173
     0
291
     0
 45
0.0
1001
ACAD
1000
AcDbSavedByObjectVersion
1070
     0
  0
VISUALSTYLE
  5
37
102
{ACAD_REACTORS
330
2A
102
}
102
{ACAD_XDICTIONARY
360
139
102
}
330
2A
100
AcDbVisualStyle
  2
Thicken
 70
    13
 71
     2
 72
     2
 73
     0
 90
        0
 40
0.6
 41
30.0
 62
     5
 63
     7
421
 16777215
 74
     1
 91
        4
 64
     7
 65
   257
 75
     1
175
     1
 42
1.0
 92
       12
 66
     7
 43
1.0
 76
     1
 77
     6
 78
     2
 67
     7
 79
     5
170
     0
171
     0
290
     0
174
     0
 93
        1
 44
0.0
173
     0
291
     1
 45
0.0
1001
ACAD
1000
AcDbSavedByObjectVersion
1070
     0
  0
VISUALSTYLE
  5
30
102
{ACAD_REACTORS
330
2A
102
}
102
{ACAD_XDICTIONARY
360
12B
102
}
330
2A
100
AcDbVisualStyle
  2
Wireframe
 70
     5
 71
     0
 72
     2
 73
     0
 90
        0
 40
0.6
 41
30.0
 62
     5
 63
     7
421
 16777215
 74
     1
 91
        4
 64
     7
 65
   257
 75
     1
175
     1
 42
1.0
 92
        0
 66
   257
 43
1.0
 76
     1
 77
     6
 78
     2
 67
     7
 79
     3
170
     0
171
     0
290
     0
174
     0
 93
        1
 44
0.0
173
     0
291
     0
 45
0.0
1001
ACAD
1000
AcDbSavedByObjectVersion
1070
     0
  0
VISUALSTYLE
  5
40
102
{ACAD_REACTORS
330
2A
102
}
102
{ACAD_XDICTIONARY
360
14B
102
}
330
2A
100
AcDbVisualStyle
  2
X-Ray
 70
    25
 71
     2
 72
     2
 73
     1
 90
        1
 40
0.5
 41
30.0
 62
     5
 63
     7
421
 16777215
 74
     1
 91
        0
 64
     7
 65
   257
 75
     1
175
     1
 42
1.0
 92
        8
 66
     7
 43
1.0
 76
     1
 77
     6
 78
     2
 67
     7
 79
     3
170
     0
171
     0
290
     0
174
     0
 93
       13
 44
0.0
173
     0
291
     0
 45
0.0
1001
ACAD
1000
AcDbSavedByObjectVersion
1070
     0
  0
DICTIONARYVAR
  5
11E
102
{ACAD_REACTORS
330
11D
102
}
330
11D
100
DictionaryVariables
280
     0
  1
1:1
  0
DICTIONARYVAR
  5
15F
102
{ACAD_REACTORS
330
11D
102
}
330
11D
100
DictionaryVariables
280
     0
  1
Standard
  0
DICTIONARYVAR
  5
15E
102
{ACAD_REACTORS
330
11D
102
}
330
11D
100
DictionaryVariables
280
     0
  1
Standard
  0
DICTIONARYVAR
  5
11F
102
{ACAD_REACTORS
330
11D
102
}
330
11D
100
DictionaryVariables
280
     0
  1
1
  0
DICTIONARYVAR
  5
120
102
{ACAD_REACTORS
330
11D
102
}
330
11D
100
DictionaryVariables
280
     0
  1
2
  0
DICTIONARY
  5
153
330
45
100
AcDbDictionary
280
     1
281
     1
  3
ACAD_XREC_ROUNDTRIP
360
154
  0
DICTIONARY
  5
151
330
44
100
AcDbDictionary
280
     1
281
     1
  3
ACAD_XREC_ROUNDTRIP
360
152
  0
DICTIONARY
  5
155
330
46
100
AcDbDictionary
280
     1
281
     1
  3
ACAD_XREC_ROUNDTRIP
360
156
  0
DICTIONARY
  5
15B
330
6C
100
AcDbDictionary
280
     1
281
     1
  3
ACAD_XREC_ROUNDTRIP
360
15C
  0
DICTIONARY
  5
157
330
6A
100
AcDbDictionary
280
     1
281
     1
  3
ACAD_ROUNDTRIP_2008_TABLESTYLE_CELLSTYLEMAP
360
159
  3
ACAD_XREC_ROUNDTRIP
360
158
  0
DICTIONARY
  5
129
330
2F
100
AcDbDictionary
280
     1
281
     1
  3
ACAD_XREC_ROUNDTRIP
360
12A
  0
DICTIONARY
  5
12F
330
32
100
AcDbDictionary
280
     1
281
     1
  3
ACAD_XREC_ROUNDTRIP
360
130
  0
DICTIONARY
  5
137
330
36
100
AcDbDictionary
280
     1
281
     1
  3
ACAD_XREC_ROUNDTRIP
360
138
  0
DICTIONARY
  5
13F
330
3A
100
AcDbDictionary
280
     1
281
     1
  3
ACAD_XREC_ROUNDTRIP
360
140
  0
DICTIONARY
  5
133
330
34
100
AcDbDictionary
280
     1
281
     1
  3
ACAD_XREC_ROUNDTRIP
360
134
  0
DICTIONARY
  5
135
330
35
100
AcDbDictionary
280
     1
281
     1
  3
ACAD_XREC_ROUNDTRIP
360
136
  0
DICTIONARY
  5
145
330
3D
100
AcDbDictionary
280
     1
281
     1
  3
ACAD_XREC_ROUNDTRIP
360
146
  0
DICTIONARY
  5
13D
330
39
100
AcDbDictionary
280
     1
281
     1
  3
ACAD_XREC_ROUNDTRIP
360
13E
  0
DICTIONARY
  5
121
330
2B
100
AcDbDictionary
280
     1
281
     1
  3
ACAD_XREC_ROUNDTRIP
360
122
  0
DICTIONARY
  5
123
330
2C
100
AcDbDictionary
280
     1
281
     1
  3
ACAD_XREC_ROUNDTRIP
360
124
  0
DICTIONARY
  5
125
330
2D
100
AcDbDictionary
280
     1
281
     1
  3
ACAD_XREC_ROUNDTRIP
360
126
  0
DICTIONARY
  5
127
330
2E
100
AcDbDictionary
280
     1
281
     1
  3
ACAD_XREC_ROUNDTRIP
360
128
  0
DICTIONARY
  5
12D
330
31
100
AcDbDictionary
280
     1
281
     1
  3
ACAD_XREC_ROUNDTRIP
360
12E
  0
DICTIONARY
  5
141
330
3B
100
AcDbDictionary
280
     1
281
     1
  3
ACAD_XREC_ROUNDTRIP
360
142
  0
DICTIONARY
  5
13B
330
38
100
AcDbDictionary
280
     1
281
     1
  3
ACAD_XREC_ROUNDTRIP
360
13C
  0
DICTIONARY
  5
143
330
3C
100
AcDbDictionary
280
     1
281
     1
  3
ACAD_XREC_ROUNDTRIP
360
144
  0
DICTIONARY
  5
131
330
33
100
AcDbDictionary
280
     1
281
     1
  3
ACAD_XREC_ROUNDTRIP
360
132
  0
DICTIONARY
  5
14F
330
42
100
AcDbDictionary
280
     1
281
     1
  3
ACAD_XREC_ROUNDTRIP
360
150
  0
DICTIONARY
  5
14D
330
41
100
AcDbDictionary
280
     1
281
     1
  3
ACAD_XREC_ROUNDTRIP
360
14E
  0
DICTIONARY
  5
147
330
3E
100
AcDbDictionary
280
     1
281
     1
  3
ACAD_XREC_ROUNDTRIP
360
148
  0
DICTIONARY
  5
149
330
3F
100
AcDbDictionary
280
     1
281
     1
  3
ACAD_XREC_ROUNDTRIP
360
14A
  0
DICTIONARY
  5
139
330
37
100
AcDbDictionary
280
     1
281
     1
  3
ACAD_XREC_ROUNDTRIP
360
13A
  0
DICTIONARY
  5
12B
330
30
100
AcDbDictionary
280
     1
281
     1
  3
ACAD_XREC_ROUNDTRIP
360
12C
  0
DICTIONARY
  5
14B
330
40
100
AcDbDictionary
280
     1
281
     1
  3
ACAD_XREC_ROUNDTRIP
360
14C
  0
XRECORD
  5
154
102
{ACAD_REACTORS
330
153
102
}
330
153
100
AcDbXrecord
280
     1
102
MATERIAL
148
0.0
149
0.0
149
0.0
 93
        0
 94
      127
282
     0
 72
     1
 77
     1
171
     1
175
     1
179
     1
273
     0
  0
XRECORD
  5
152
102
{ACAD_REACTORS
330
151
102
}
330
151
100
AcDbXrecord
280
     1
102
MATERIAL
148
0.0
149
0.0
149
0.0
 93
        0
 94
      127
282
     0
 72
     1
 77
     1
171
     1
175
     1
179
     1
273
     0
  0
XRECORD
  5
156
102
{ACAD_REACTORS
330
155
102
}
330
155
100
AcDbXrecord
280
     1
102
MATERIAL
148
0.0
149
0.0
149
0.0
 93
        0
 94
      127
282
     0
 72
     1
 77
     1
171
     1
175
     1
179
     1
273
     0
  0
XRECORD
  5
15C
102
{ACAD_REACTORS
330
15B
102
}
330
15B
100
AcDbXrecord
280
     1
102
ACAD_ROUNDTRIP_2010_MLEADER_STYLE
  0
CELLSTYLEMAP
  5
159
102
{ACAD_REACTORS
330
157
102
}
330
157
100
AcDbCellStyleMap
 90
        3
300
CELLSTYLE
  1
TABLEFORMAT_BEGIN
 90
        5
170
     1
 91
        0
 92
    32768
 62
   257
 93
        1
300
CONTENTFORMAT
  1
CONTENTFORMAT_BEGIN
 90
        0
 91
        0
 92
        4
 93
        0
300

 40
0.0
140
1.0
 94
        5
 62
     0
340
11
144
0.25
309
CONTENTFORMAT_END
171
     1
301
MARGIN
  1
CELLMARGIN_BEGIN
 40
0.06
 40
0.06
 40
0.06
 40
0.06
 40
0.06
 40
0.06
309
CELLMARGIN_END
 94
        6
 95
        1
302
GRIDFORMAT
  1
GRIDFORMAT_BEGIN
 90
        0
 91
        1
 62
     0
 92
       -2
340
14
 93
        0
 40
0.045
309
GRIDFORMAT_END
 95
        2
302
GRIDFORMAT
  1
GRIDFORMAT_BEGIN
 90
        0
 91
        1
 62
     0
 92
       -2
340
14
 93
        0
 40
0.045
309
GRIDFORMAT_END
 95
        4
302
GRIDFORMAT
  1
GRIDFORMAT_BEGIN
 90
        0
 91
        1
 62
     0
 92
       -2
340
14
 93
        0
 40
0.045
309
GRIDFORMAT_END
 95
        8
302
GRIDFORMAT
  1
GRIDFORMAT_BEGIN
 90
        0
 91
        1
 62
     0
 92
       -2
340
14
 93
        0
 40
0.045
309
GRIDFORMAT_END
 95
       16
302
GRIDFORMAT
  1
GRIDFORMAT_BEGIN
 90
        0
 91
        1
 62
     0
 92
       -2
340
14
 93
        0
 40
0.045
309
GRIDFORMAT_END
 95
       32
302
GRIDFORMAT
  1
GRIDFORMAT_BEGIN
 90
        0
 91
        1
 62
     0
 92
       -2
340
14
 93
        0
 40
0.045
309
GRIDFORMAT_END
309
TABLEFORMAT_END
  1
CELLSTYLE_BEGIN
 90
        1
 91
        1
300
_TITLE
309
CELLSTYLE_END
300
CELLSTYLE
  1
TABLEFORMAT_BEGIN
 90
        5
170
     1
 91
        0
 92
        0
 62
   257
 93
        1
300
CONTENTFORMAT
  1
CONTENTFORMAT_BEGIN
 90
        0
 91
        0
 92
        4
 93
        0
300

 40
0.0
140
1.0
 94
        5
 62
     0
340
11
144
0.18
309
CONTENTFORMAT_END
171
     1
301
MARGIN
  1
CELLMARGIN_BEGIN
 40
0.06
 40
0.06
 40
0.06
 40
0.06
 40
0.06
 40
0.06
309
CELLMARGIN_END
 94
        6
 95
        1
302
GRIDFORMAT
  1
GRIDFORMAT_BEGIN
 90
        0
 91
        1
 62
     0
 92
       -2
340
14
 93
        0
 40
0.045
309
GRIDFORMAT_END
 95
        2
302
GRIDFORMAT
  1
GRIDFORMAT_BEGIN
 90
        0
 91
        1
 62
     0
 92
       -2
340
14
 93
        0
 40
0.045
309
GRIDFORMAT_END
 95
        4
302
GRIDFORMAT
  1
GRIDFORMAT_BEGIN
 90
        0
 91
        1
 62
     0
 92
       -2
340
14
 93
        0
 40
0.045
309
GRIDFORMAT_END
 95
        8
302
GRIDFORMAT
  1
GRIDFORMAT_BEGIN
 90
        0
 91
        1
 62
     0
 92
       -2
340
14
 93
        0
 40
0.045
309
GRIDFORMAT_END
 95
       16
302
GRIDFORMAT
  1
GRIDFORMAT_BEGIN
 90
        0
 91
        1
 62
     0
 92
       -2
340
14
 93
        0
 40
0.045
309
GRIDFORMAT_END
 95
       32
302
GRIDFORMAT
  1
GRIDFORMAT_BEGIN
 90
        0
 91
        1
 62
     0
 92
       -2
340
14
 93
        0
 40
0.045
309
GRIDFORMAT_END
309
TABLEFORMAT_END
  1
CELLSTYLE_BEGIN
 90
        2
 91
        1
300
_HEADER
309
CELLSTYLE_END
300
CELLSTYLE
  1
TABLEFORMAT_BEGIN
 90
        5
170
     1
 91
        0
 92
        0
 62
   257
 93
        1
300
CONTENTFORMAT
  1
CONTENTFORMAT_BEGIN
 90
        0
 91
        0
 92
        4
 93
        0
300

 40
0.0
140
1.0
 94
        2
 62
     0
340
11
144
0.18
309
CONTENTFORMAT_END
171
     1
301
MARGIN
  1
CELLMARGIN_BEGIN
 40
0.06
 40
0.06
 40
0.06
 40
0.06
 40
0.06
 40
0.06
309
CELLMARGIN_END
 94
        6
 95
        1
302
GRIDFORMAT
  1
GRIDFORMAT_BEGIN
 90
        0
 91
        1
 62
     0
 92
       -2
340
14
 93
        0
 40
0.045
309
GRIDFORMAT_END
 95
        2
302
GRIDFORMAT
  1
GRIDFORMAT_BEGIN
 90
        0
 91
        1
 62
     0
 92
       -2
340
14
 93
        0
 40
0.045
309
GRIDFORMAT_END
 95
        4
302
GRIDFORMAT
  1
GRIDFORMAT_BEGIN
 90
        0
 91
        1
 62
     0
 92
       -2
340
14
 93
        0
 40
0.045
309
GRIDFORMAT_END
 95
        8
302
GRIDFORMAT
  1
GRIDFORMAT_BEGIN
 90
        0
 91
        1
 62
     0
 92
       -2
340
14
 93
        0
 40
0.045
309
GRIDFORMAT_END
 95
       16
302
GRIDFORMAT
  1
GRIDFORMAT_BEGIN
 90
        0
 91
        1
 62
     0
 92
       -2
340
14
 93
        0
 40
0.045
309
GRIDFORMAT_END
 95
       32
302
GRIDFORMAT
  1
GRIDFORMAT_BEGIN
 90
        0
 91
        1
 62
     0
 92
       -2
340
14
 93
        0
 40
0.045
309
GRIDFORMAT_END
309
TABLEFORMAT_END
  1
CELLSTYLE_BEGIN
 90
        3
 91
        2
300
_DATA
309
CELLSTYLE_END
  0
XRECORD
  5
158
102
{ACAD_REACTORS
330
157
102
}
330
157
100
AcDbXrecord
280
     1
102
ACAD_ROUNDTRIP_PRE2007_TABLESTYLE
 90
        4
 91
        0
  1

 92
        4
 93
        0
  2

 94
        4
 95
        0
  3

  0
XRECORD
  5
12A
102
{ACAD_REACTORS
330
129
102
}
330
129
100
AcDbXrecord
280
     1
102
RTVSPropertyOp0
 70
     1
102
RTVSPropertyOp1
 70
     1
102
RTVSPropertyOp2
 70
     1
102
RTVSPropertyOp3
 70
     1
102
RTVSPropertyOp4
 70
     1
102
RTVSPropertyOp5
 70
     1
102
RTVSPropertyOp6
 70
     1
102
RTVSPropertyOp7
 70
     1
102
RTVSPropertyOp8
 70
     1
102
RTVSPropertyOp9
 70
     1
102
RTVSPropertyOp10
 70
     1
102
RTVSPropertyOp11
 70
     1
102
RTVSPropertyOp12
 70
     1
102
RTVSPropertyOp13
 70
     1
102
RTVSPropertyOp14
 70
     1
102
RTVSPropertyOp15
 70
     1
102
RTVSPropertyOp16
 70
     1
102
RTVSPropertyOp17
 70
     1
102
RTVSPropertyOp18
 70
     1
102
RTVSPropertyOp19
 70
     1
102
RTVSPropertyOp20
 70
     1
102
RTVSPropertyOp21
 70
     1
102
RTVSPropertyOp22
 70
     1
102
RTVSPropertyOp23
 70
     1
102
RTVSPropertyOp24
 70
     1
102
RTVSPropertyOp25
 70
     1
102
RTVSPropertyOp26
 70
     1
102
RTVSPropertyOp27
 70
     1
102
RTVSPropertyOp28
 70
     1
102
RTVSPropertyOp29
 70
     1
102
RTVSPropertyOp30
 70
     1
102
RTVSPropertyOp31
 70
     1
102
RTVSPropertyOp32
 70
     1
102
RTVSPropertyOp33
 70
     1
102
RTVSPropertyOp34
 70
     1
102
RTVSPropertyOp35
 70
     1
102
RTVSPropertyOp36
 70
     1
102
RTVSPropertyOp37
 70
     1
102
RTVSPropertyOp38
 70
     1
102
RTVSPropertyOp39
 70
     1
102
RTVSPropertyOp40
 70
     1
102
RTVSPropertyOp41
 70
     1
102
RTVSPropertyOp42
 70
     1
102
RTVSPropertyOp43
 70
     1
102
RTVSPropertyOp44
 70
     1
102
RTVSPropertyOp45
 70
     1
102
RTVSPropertyOp46
 70
     1
102
RTVSPropertyOp47
 70
     1
102
RTVSPropertyOp48
 70
     1
102
RTVSPropertyOp49
 70
     1
102
RTVSPropertyOp50
 70
     1
102
RTVSPropertyOp51
 70
     0
102
RTVSPropertyOp52
 70
     0
102
RTVSPropertyOp53
 70
     1
102
RTVSPropertyOp54
 70
     1
102
RTVSPropertyOp55
 70
     1
102
RTVSPropertyOp56
 70
     1
102
RTVSPropertyOp57
 70
     1
102
RTVSPost2010Prop28
280
     1
102
RTVSPost2010PropOp28
 70
     1
102
RTVSPost2010Prop29
280
     1
102
RTVSPost2010PropOp29
 70
     1
102
RTVSPost2010Prop30
280
     0
102
RTVSPost2010PropOp30
 70
     1
102
RTVSPost2010Prop31
280
     0
102
RTVSPost2010PropOp31
 70
     1
102
RTVSPost2010Prop32
280
     0
102
RTVSPost2010PropOp32
 70
     1
102
RTVSPost2010Prop33
280
     0
102
RTVSPost2010PropOp33
 70
     1
102
RTVSPost2010Prop34
280
     0
102
RTVSPost2010PropOp34
 70
     1
102
RTVSPost2010Prop35
280
     0
102
RTVSPost2010PropOp35
 70
     1
102
RTVSPost2010Prop36
280
     0
102
RTVSPost2010PropOp36
 70
     1
102
RTVSPost2010Prop37
 90
       50
102
RTVSPost2010PropOp37
 70
     1
102
RTVSPost2010Prop38
140
0.0
102
RTVSPost2010PropOp38
 70
     1
102
RTVSPost2010Prop39
140
1.0
102
RTVSPost2010PropOp39
 70
     1
102
RTVSPost2010Prop40
 90
        0
102
RTVSPost2010PropOp40
 70
     1
102
RTVSPost2010Prop41ColorIndex
 90
       18
102
RTVSPost2010Prop41ColorRGB
 90
        0
102
RTVSPost2010PropOp41
 70
     1
102
RTVSPost2010Prop42
 90
       50
102
RTVSPost2010PropOp42
 70
     1
102
RTVSPost2010Prop43
 90
        3
102
RTVSPost2010PropOp43
 70
     1
102
RTVSPost2010Prop44ColorIndex
 90
        5
102
RTVSPost2010Prop44ColorRGB
 90
      255
102
RTVSPost2010PropOp44
 70
     1
102
RTVSPost2010Prop45
280
     0
102
RTVSPost2010PropOp45
 70
     1
102
RTVSPost2010Prop46
 90
       50
102
RTVSPost2010PropOp46
 70
     1
102
RTVSPost2010Prop47
 90
       50
102
RTVSPost2010PropOp47
 70
     1
102
RTVSPost2010Prop48
 90
       50
102
RTVSPost2010PropOp48
 70
     1
102
RTVSPost2010Prop49
280
     0
102
RTVSPost2010PropOp49
 70
     1
102
RTVSPost2010Prop50
 90
       50
102
RTVSPost2010PropOp50
 70
     1
102
RTVSPost2010Prop51ColorIndex
 90
      256
102
RTVSPost2010Prop51ColorRGB
 90
-16777216
102
RTVSPost2010PropOp51
 70
     0
102
RTVSPost2010Prop52
140
1.0
102
RTVSPost2010PropOp52
 70
     0
102
RTVSPost2010Prop53
 90
        2
102
RTVSPost2010PropOp53
 70
     1
102
RTVSPost2010Prop54
  1
strokes_ogs.tif
102
RTVSPost2010PropOp54
 70
     1
102
RTVSPost2010Prop55
280
     0
102
RTVSPost2010PropOp55
 70
     1
102
RTVSPost2010Prop56
140
1.0
102
RTVSPost2010PropOp56
 70
     1
102
RTVSPost2010Prop57
140
1.0
102
RTVSPost2010PropOp57
 70
     1
  0
XRECORD
  5
130
102
{ACAD_REACTORS
330
12F
102
}
330
12F
100
AcDbXrecord
280
     1
102
RTVSPropertyOp0
 70
     1
102
RTVSPropertyOp1
 70
     1
102
RTVSPropertyOp2
 70
     1
102
RTVSPropertyOp3
 70
     1
102
RTVSPropertyOp4
 70
     1
102
RTVSPropertyOp5
 70
     1
102
RTVSPropertyOp6
 70
     1
102
RTVSPropertyOp7
 70
     1
102
RTVSPropertyOp8
 70
     1
102
RTVSPropertyOp9
 70
     1
102
RTVSPropertyOp10
 70
     1
102
RTVSPropertyOp11
 70
     1
102
RTVSPropertyOp12
 70
     1
102
RTVSPropertyOp13
 70
     1
102
RTVSPropertyOp14
 70
     1
102
RTVSPropertyOp15
 70
     1
102
RTVSPropertyOp16
 70
     1
102
RTVSPropertyOp17
 70
     1
102
RTVSPropertyOp18
 70
     1
102
RTVSPropertyOp19
 70
     1
102
RTVSPropertyOp20
 70
     1
102
RTVSPropertyOp21
 70
     1
102
RTVSPropertyOp22
 70
     1
102
RTVSPropertyOp23
 70
     1
102
RTVSPropertyOp24
 70
     1
102
RTVSPropertyOp25
 70
     1
102
RTVSPropertyOp26
 70
     1
102
RTVSPropertyOp27
 70
     1
102
RTVSPropertyOp28
 70
     1
102
RTVSPropertyOp29
 70
     1
102
RTVSPropertyOp30
 70
     1
102
RTVSPropertyOp31
 70
     1
102
RTVSPropertyOp32
 70
     1
102
RTVSPropertyOp33
 70
     1
102
RTVSPropertyOp34
 70
     1
102
RTVSPropertyOp35
 70
     1
102
RTVSPropertyOp36
 70
     1
102
RTVSPropertyOp37
 70
     1
102
RTVSPropertyOp38
 70
     1
102
RTVSPropertyOp39
 70
     1
102
RTVSPropertyOp40
 70
     1
102
RTVSPropertyOp41
 70
     1
102
RTVSPropertyOp42
 70
     1
102
RTVSPropertyOp43
 70
     1
102
RTVSPropertyOp44
 70
     1
102
RTVSPropertyOp45
 70
     1
102
RTVSPropertyOp46
 70
     1
102
RTVSPropertyOp47
 70
     1
102
RTVSPropertyOp48
 70
     1
102
RTVSPropertyOp49
 70
     1
102
RTVSPropertyOp50
 70
     1
102
RTVSPropertyOp51
 70
     0
102
RTVSPropertyOp52
 70
     0
102
RTVSPropertyOp53
 70
     1
102
RTVSPropertyOp54
 70
     1
102
RTVSPropertyOp55
 70
     1
102
RTVSPropertyOp56
 70
     1
102
RTVSPropertyOp57
 70
     1
102
RTVSPost2010Prop28
280
     0
102
RTVSPost2010PropOp28
 70
     1
102
RTVSPost2010Prop29
280
     1
102
RTVSPost2010PropOp29
 70
     1
102
RTVSPost2010Prop30
280
     1
102
RTVSPost2010PropOp30
 70
     1
102
RTVSPost2010Prop31
280
     0
102
RTVSPost2010PropOp31
 70
     1
102
RTVSPost2010Prop32
280
     0
102
RTVSPost2010PropOp32
 70
     1
102
RTVSPost2010Prop33
280
     0
102
RTVSPost2010PropOp33
 70
     1
102
RTVSPost2010Prop34
280
     0
102
RTVSPost2010PropOp34
 70
     1
102
RTVSPost2010Prop35
280
     0
102
RTVSPost2010PropOp35
 70
     1
102
RTVSPost2010Prop36
280
     0
102
RTVSPost2010PropOp36
 70
     1
102
RTVSPost2010Prop37
 90
       50
102
RTVSPost2010PropOp37
 70
     1
102
RTVSPost2010Prop38
140
0.0
102
RTVSPost2010PropOp38
 70
     1
102
RTVSPost2010Prop39
140
1.0
102
RTVSPost2010PropOp39
 70
     1
102
RTVSPost2010Prop40
 90
        0
102
RTVSPost2010PropOp40
 70
     1
102
RTVSPost2010Prop41ColorIndex
 90
       18
102
RTVSPost2010Prop41ColorRGB
 90
        0
102
RTVSPost2010PropOp41
 70
     1
102
RTVSPost2010Prop42
 90
       50
102
RTVSPost2010PropOp42
 70
     1
102
RTVSPost2010Prop43
 90
        3
102
RTVSPost2010PropOp43
 70
     1
102
RTVSPost2010Prop44ColorIndex
 90
        5
102
RTVSPost2010Prop44ColorRGB
 90
      255
102
RTVSPost2010PropOp44
 70
     1
102
RTVSPost2010Prop45
280
     0
102
RTVSPost2010PropOp45
 70
     1
102
RTVSPost2010Prop46
 90
       50
102
RTVSPost2010PropOp46
 70
     1
102
RTVSPost2010Prop47
 90
       50
102
RTVSPost2010PropOp47
 70
     1
102
RTVSPost2010Prop48
 90
       50
102
RTVSPost2010PropOp48
 70
     1
102
RTVSPost2010Prop49
280
     0
102
RTVSPost2010PropOp49
 70
     1
102
RTVSPost2010Prop50
 90
       50
102
RTVSPost2010PropOp50
 70
     1
102
RTVSPost2010Prop51ColorIndex
 90
      256
102
RTVSPost2010Prop51ColorRGB
 90
-16777216
102
RTVSPost2010PropOp51
 70
     0
102
RTVSPost2010Prop52
140
1.0
102
RTVSPost2010PropOp52
 70
     0
102
RTVSPost2010Prop53
 90
        2
102
RTVSPost2010PropOp53
 70
     1
102
RTVSPost2010Prop54
  1
strokes_ogs.tif
102
RTVSPost2010PropOp54
 70
     1
102
RTVSPost2010Prop55
280
     0
102
RTVSPost2010PropOp55
 70
     1
102
RTVSPost2010Prop56
140
1.0
102
RTVSPost2010PropOp56
 70
     1
102
RTVSPost2010Prop57
140
1.0
102
RTVSPost2010PropOp57
 70
     1
  0
XRECORD
  5
138
102
{ACAD_REACTORS
330
137
102
}
330
137
100
AcDbXrecord
280
     1
102
RTVSPropertyOp0
 70
     1
102
RTVSPropertyOp1
 70
     1
102
RTVSPropertyOp2
 70
     1
102
RTVSPropertyOp3
 70
     1
102
RTVSPropertyOp4
 70
     1
102
RTVSPropertyOp5
 70
     1
102
RTVSPropertyOp6
 70
     1
102
RTVSPropertyOp7
 70
     1
102
RTVSPropertyOp8
 70
     1
102
RTVSPropertyOp9
 70
     1
102
RTVSPropertyOp10
 70
     1
102
RTVSPropertyOp11
 70
     1
102
RTVSPropertyOp12
 70
     1
102
RTVSPropertyOp13
 70
     1
102
RTVSPropertyOp14
 70
     1
102
RTVSPropertyOp15
 70
     1
102
RTVSPropertyOp16
 70
     1
102
RTVSPropertyOp17
 70
     1
102
RTVSPropertyOp18
 70
     1
102
RTVSPropertyOp19
 70
     1
102
RTVSPropertyOp20
 70
     1
102
RTVSPropertyOp21
 70
     1
102
RTVSPropertyOp22
 70
     1
102
RTVSPropertyOp23
 70
     1
102
RTVSPropertyOp24
 70
     1
102
RTVSPropertyOp25
 70
     1
102
RTVSPropertyOp26
 70
     1
102
RTVSPropertyOp27
 70
     1
102
RTVSPropertyOp28
 70
     1
102
RTVSPropertyOp29
 70
     1
102
RTVSPropertyOp30
 70
     1
102
RTVSPropertyOp31
 70
     1
102
RTVSPropertyOp32
 70
     1
102
RTVSPropertyOp33
 70
     1
102
RTVSPropertyOp34
 70
     1
102
RTVSPropertyOp35
 70
     1
102
RTVSPropertyOp36
 70
     1
102
RTVSPropertyOp37
 70
     1
102
RTVSPropertyOp38
 70
     1
102
RTVSPropertyOp39
 70
     1
102
RTVSPropertyOp40
 70
     1
102
RTVSPropertyOp41
 70
     1
102
RTVSPropertyOp42
 70
     1
102
RTVSPropertyOp43
 70
     1
102
RTVSPropertyOp44
 70
     1
102
RTVSPropertyOp45
 70
     1
102
RTVSPropertyOp46
 70
     1
102
RTVSPropertyOp47
 70
     1
102
RTVSPropertyOp48
 70
     1
102
RTVSPropertyOp49
 70
     1
102
RTVSPropertyOp50
 70
     1
102
RTVSPropertyOp51
 70
     0
102
RTVSPropertyOp52
 70
     0
102
RTVSPropertyOp53
 70
     1
102
RTVSPropertyOp54
 70
     1
102
RTVSPropertyOp55
 70
     1
102
RTVSPropertyOp56
 70
     1
102
RTVSPropertyOp57
 70
     1
102
RTVSPost2010Prop28
280
     0
102
RTVSPost2010PropOp28
 70
     1
102
RTVSPost2010Prop29
280
     1
102
RTVSPost2010PropOp29
 70
     1
102
RTVSPost2010Prop30
280
     1
102
RTVSPost2010PropOp30
 70
     1
102
RTVSPost2010Prop31
280
     0
102
RTVSPost2010PropOp31
 70
     1
102
RTVSPost2010Prop32
280
     0
102
RTVSPost2010PropOp32
 70
     1
102
RTVSPost2010Prop33
280
     0
102
RTVSPost2010PropOp33
 70
     1
102
RTVSPost2010Prop34
280
     0
102
RTVSPost2010PropOp34
 70
     1
102
RTVSPost2010Prop35
280
     0
102
RTVSPost2010PropOp35
 70
     1
102
RTVSPost2010Prop36
280
     0
102
RTVSPost2010PropOp36
 70
     1
102
RTVSPost2010Prop37
 90
       50
102
RTVSPost2010PropOp37
 70
     1
102
RTVSPost2010Prop38
140
0.0
102
RTVSPost2010PropOp38
 70
     1
102
RTVSPost2010Prop39
140
1.0
102
RTVSPost2010PropOp39
 70
     1
102
RTVSPost2010Prop40
 90
        0
102
RTVSPost2010PropOp40
 70
     1
102
RTVSPost2010Prop41ColorIndex
 90
       18
102
RTVSPost2010Prop41ColorRGB
 90
        0
102
RTVSPost2010PropOp41
 70
     1
102
RTVSPost2010Prop42
 90
       50
102
RTVSPost2010PropOp42
 70
     1
102
RTVSPost2010Prop43
 90
        3
102
RTVSPost2010PropOp43
 70
     1
102
RTVSPost2010Prop44ColorIndex
 90
        5
102
RTVSPost2010Prop44ColorRGB
 90
      255
102
RTVSPost2010PropOp44
 70
     1
102
RTVSPost2010Prop45
280
     0
102
RTVSPost2010PropOp45
 70
     1
102
RTVSPost2010Prop46
 90
       50
102
RTVSPost2010PropOp46
 70
     1
102
RTVSPost2010Prop47
 90
       50
102
RTVSPost2010PropOp47
 70
     1
102
RTVSPost2010Prop48
 90
       50
102
RTVSPost2010PropOp48
 70
     1
102
RTVSPost2010Prop49
280
     0
102
RTVSPost2010PropOp49
 70
     1
102
RTVSPost2010Prop50
 90
       50
102
RTVSPost2010PropOp50
 70
     1
102
RTVSPost2010Prop51ColorIndex
 90
      256
102
RTVSPost2010Prop51ColorRGB
 90
-16777216
102
RTVSPost2010PropOp51
 70
     0
102
RTVSPost2010Prop52
140
1.0
102
RTVSPost2010PropOp52
 70
     0
102
RTVSPost2010Prop53
 90
        2
102
RTVSPost2010PropOp53
 70
     1
102
RTVSPost2010Prop54
  1
strokes_ogs.tif
102
RTVSPost2010PropOp54
 70
     1
102
RTVSPost2010Prop55
280
     0
102
RTVSPost2010PropOp55
 70
     1
102
RTVSPost2010Prop56
140
1.0
102
RTVSPost2010PropOp56
 70
     1
102
RTVSPost2010Prop57
140
1.0
102
RTVSPost2010PropOp57
 70
     1
  0
XRECORD
  5
140
102
{ACAD_REACTORS
330
13F
102
}
330
13F
100
AcDbXrecord
280
     1
102
RTVSPropertyOp0
 70
     1
102
RTVSPropertyOp1
 70
     1
102
RTVSPropertyOp2
 70
     1
102
RTVSPropertyOp3
 70
     1
102
RTVSPropertyOp4
 70
     1
102
RTVSPropertyOp5
 70
     1
102
RTVSPropertyOp6
 70
     1
102
RTVSPropertyOp7
 70
     1
102
RTVSPropertyOp8
 70
     1
102
RTVSPropertyOp9
 70
     1
102
RTVSPropertyOp10
 70
     1
102
RTVSPropertyOp11
 70
     1
102
RTVSPropertyOp12
 70
     1
102
RTVSPropertyOp13
 70
     1
102
RTVSPropertyOp14
 70
     1
102
RTVSPropertyOp15
 70
     1
102
RTVSPropertyOp16
 70
     1
102
RTVSPropertyOp17
 70
     1
102
RTVSPropertyOp18
 70
     1
102
RTVSPropertyOp19
 70
     1
102
RTVSPropertyOp20
 70
     1
102
RTVSPropertyOp21
 70
     1
102
RTVSPropertyOp22
 70
     1
102
RTVSPropertyOp23
 70
     1
102
RTVSPropertyOp24
 70
     1
102
RTVSPropertyOp25
 70
     1
102
RTVSPropertyOp26
 70
     1
102
RTVSPropertyOp27
 70
     1
102
RTVSPropertyOp28
 70
     1
102
RTVSPropertyOp29
 70
     1
102
RTVSPropertyOp30
 70
     1
102
RTVSPropertyOp31
 70
     1
102
RTVSPropertyOp32
 70
     1
102
RTVSPropertyOp33
 70
     1
102
RTVSPropertyOp34
 70
     1
102
RTVSPropertyOp35
 70
     1
102
RTVSPropertyOp36
 70
     1
102
RTVSPropertyOp37
 70
     1
102
RTVSPropertyOp38
 70
     1
102
RTVSPropertyOp39
 70
     1
102
RTVSPropertyOp40
 70
     1
102
RTVSPropertyOp41
 70
     1
102
RTVSPropertyOp42
 70
     1
102
RTVSPropertyOp43
 70
     1
102
RTVSPropertyOp44
 70
     1
102
RTVSPropertyOp45
 70
     1
102
RTVSPropertyOp46
 70
     1
102
RTVSPropertyOp47
 70
     1
102
RTVSPropertyOp48
 70
     1
102
RTVSPropertyOp49
 70
     1
102
RTVSPropertyOp50
 70
     1
102
RTVSPropertyOp51
 70
     0
102
RTVSPropertyOp52
 70
     0
102
RTVSPropertyOp53
 70
     1
102
RTVSPropertyOp54
 70
     1
102
RTVSPropertyOp55
 70
     1
102
RTVSPropertyOp56
 70
     1
102
RTVSPropertyOp57
 70
     1
102
RTVSPost2010Prop28
280
     0
102
RTVSPost2010PropOp28
 70
     1
102
RTVSPost2010Prop29
280
     1
102
RTVSPost2010PropOp29
 70
     1
102
RTVSPost2010Prop30
280
     1
102
RTVSPost2010PropOp30
 70
     1
102
RTVSPost2010Prop31
280
     0
102
RTVSPost2010PropOp31
 70
     1
102
RTVSPost2010Prop32
280
     0
102
RTVSPost2010PropOp32
 70
     1
102
RTVSPost2010Prop33
280
     0
102
RTVSPost2010PropOp33
 70
     1
102
RTVSPost2010Prop34
280
     0
102
RTVSPost2010PropOp34
 70
     1
102
RTVSPost2010Prop35
280
     0
102
RTVSPost2010PropOp35
 70
     1
102
RTVSPost2010Prop36
280
     0
102
RTVSPost2010PropOp36
 70
     1
102
RTVSPost2010Prop37
 90
       50
102
RTVSPost2010PropOp37
 70
     1
102
RTVSPost2010Prop38
140
0.0
102
RTVSPost2010PropOp38
 70
     1
102
RTVSPost2010Prop39
140
1.0
102
RTVSPost2010PropOp39
 70
     1
102
RTVSPost2010Prop40
 90
        0
102
RTVSPost2010PropOp40
 70
     1
102
RTVSPost2010Prop41ColorIndex
 90
       18
102
RTVSPost2010Prop41ColorRGB
 90
        0
102
RTVSPost2010PropOp41
 70
     1
102
RTVSPost2010Prop42
 90
       50
102
RTVSPost2010PropOp42
 70
     1
102
RTVSPost2010Prop43
 90
        3
102
RTVSPost2010PropOp43
 70
     1
102
RTVSPost2010Prop44ColorIndex
 90
        5
102
RTVSPost2010Prop44ColorRGB
 90
      255
102
RTVSPost2010PropOp44
 70
     1
102
RTVSPost2010Prop45
280
     0
102
RTVSPost2010PropOp45
 70
     1
102
RTVSPost2010Prop46
 90
       50
102
RTVSPost2010PropOp46
 70
     1
102
RTVSPost2010Prop47
 90
       50
102
RTVSPost2010PropOp47
 70
     1
102
RTVSPost2010Prop48
 90
       50
102
RTVSPost2010PropOp48
 70
     1
102
RTVSPost2010Prop49
280
     0
102
RTVSPost2010PropOp49
 70
     1
102
RTVSPost2010Prop50
 90
       50
102
RTVSPost2010PropOp50
 70
     1
102
RTVSPost2010Prop51ColorIndex
 90
      256
102
RTVSPost2010Prop51ColorRGB
 90
-16777216
102
RTVSPost2010PropOp51
 70
     0
102
RTVSPost2010Prop52
140
1.0
102
RTVSPost2010PropOp52
 70
     0
102
RTVSPost2010Prop53
 90
        2
102
RTVSPost2010PropOp53
 70
     1
102
RTVSPost2010Prop54
  1
strokes_ogs.tif
102
RTVSPost2010PropOp54
 70
     1
102
RTVSPost2010Prop55
280
     0
102
RTVSPost2010PropOp55
 70
     1
102
RTVSPost2010Prop56
140
1.0
102
RTVSPost2010PropOp56
 70
     1
102
RTVSPost2010Prop57
140
1.0
102
RTVSPost2010PropOp57
 70
     1
  0
XRECORD
  5
134
102
{ACAD_REACTORS
330
133
102
}
330
133
100
AcDbXrecord
280
     1
102
RTVSPropertyOp0
 70
     1
102
RTVSPropertyOp1
 70
     1
102
RTVSPropertyOp2
 70
     1
102
RTVSPropertyOp3
 70
     1
102
RTVSPropertyOp4
 70
     1
102
RTVSPropertyOp5
 70
     1
102
RTVSPropertyOp6
 70
     1
102
RTVSPropertyOp7
 70
     1
102
RTVSPropertyOp8
 70
     1
102
RTVSPropertyOp9
 70
     1
102
RTVSPropertyOp10
 70
     1
102
RTVSPropertyOp11
 70
     1
102
RTVSPropertyOp12
 70
     1
102
RTVSPropertyOp13
 70
     1
102
RTVSPropertyOp14
 70
     1
102
RTVSPropertyOp15
 70
     1
102
RTVSPropertyOp16
 70
     1
102
RTVSPropertyOp17
 70
     1
102
RTVSPropertyOp18
 70
     1
102
RTVSPropertyOp19
 70
     1
102
RTVSPropertyOp20
 70
     1
102
RTVSPropertyOp21
 70
     1
102
RTVSPropertyOp22
 70
     1
102
RTVSPropertyOp23
 70
     1
102
RTVSPropertyOp24
 70
     1
102
RTVSPropertyOp25
 70
     1
102
RTVSPropertyOp26
 70
     1
102
RTVSPropertyOp27
 70
     1
102
RTVSPropertyOp28
 70
     1
102
RTVSPropertyOp29
 70
     1
102
RTVSPropertyOp30
 70
     1
102
RTVSPropertyOp31
 70
     1
102
RTVSPropertyOp32
 70
     1
102
RTVSPropertyOp33
 70
     1
102
RTVSPropertyOp34
 70
     1
102
RTVSPropertyOp35
 70
     1
102
RTVSPropertyOp36
 70
     1
102
RTVSPropertyOp37
 70
     1
102
RTVSPropertyOp38
 70
     1
102
RTVSPropertyOp39
 70
     1
102
RTVSPropertyOp40
 70
     1
102
RTVSPropertyOp41
 70
     1
102
RTVSPropertyOp42
 70
     1
102
RTVSPropertyOp43
 70
     1
102
RTVSPropertyOp44
 70
     1
102
RTVSPropertyOp45
 70
     1
102
RTVSPropertyOp46
 70
     1
102
RTVSPropertyOp47
 70
     1
102
RTVSPropertyOp48
 70
     1
102
RTVSPropertyOp49
 70
     1
102
RTVSPropertyOp50
 70
     1
102
RTVSPropertyOp51
 70
     0
102
RTVSPropertyOp52
 70
     0
102
RTVSPropertyOp53
 70
     1
102
RTVSPropertyOp54
 70
     1
102
RTVSPropertyOp55
 70
     1
102
RTVSPropertyOp56
 70
     1
102
RTVSPropertyOp57
 70
     1
102
RTVSPost2010Prop28
280
     0
102
RTVSPost2010PropOp28
 70
     1
102
RTVSPost2010Prop29
280
     1
102
RTVSPost2010PropOp29
 70
     1
102
RTVSPost2010Prop30
280
     1
102
RTVSPost2010PropOp30
 70
     1
102
RTVSPost2010Prop31
280
     0
102
RTVSPost2010PropOp31
 70
     1
102
RTVSPost2010Prop32
280
     0
102
RTVSPost2010PropOp32
 70
     1
102
RTVSPost2010Prop33
280
     0
102
RTVSPost2010PropOp33
 70
     1
102
RTVSPost2010Prop34
280
     0
102
RTVSPost2010PropOp34
 70
     1
102
RTVSPost2010Prop35
280
     0
102
RTVSPost2010PropOp35
 70
     1
102
RTVSPost2010Prop36
280
     0
102
RTVSPost2010PropOp36
 70
     1
102
RTVSPost2010Prop37
 90
       50
102
RTVSPost2010PropOp37
 70
     1
102
RTVSPost2010Prop38
140
0.0
102
RTVSPost2010PropOp38
 70
     1
102
RTVSPost2010Prop39
140
1.0
102
RTVSPost2010PropOp39
 70
     1
102
RTVSPost2010Prop40
 90
        0
102
RTVSPost2010PropOp40
 70
     1
102
RTVSPost2010Prop41ColorIndex
 90
       18
102
RTVSPost2010Prop41ColorRGB
 90
        0
102
RTVSPost2010PropOp41
 70
     1
102
RTVSPost2010Prop42
 90
       50
102
RTVSPost2010PropOp42
 70
     1
102
RTVSPost2010Prop43
 90
        3
102
RTVSPost2010PropOp43
 70
     1
102
RTVSPost2010Prop44ColorIndex
 90
        5
102
RTVSPost2010Prop44ColorRGB
 90
      255
102
RTVSPost2010PropOp44
 70
     1
102
RTVSPost2010Prop45
280
     0
102
RTVSPost2010PropOp45
 70
     1
102
RTVSPost2010Prop46
 90
       50
102
RTVSPost2010PropOp46
 70
     1
102
RTVSPost2010Prop47
 90
       50
102
RTVSPost2010PropOp47
 70
     1
102
RTVSPost2010Prop48
 90
       50
102
RTVSPost2010PropOp48
 70
     1
102
RTVSPost2010Prop49
280
     0
102
RTVSPost2010PropOp49
 70
     1
102
RTVSPost2010Prop50
 90
       50
102
RTVSPost2010PropOp50
 70
     1
102
RTVSPost2010Prop51ColorIndex
 90
      256
102
RTVSPost2010Prop51ColorRGB
 90
-16777216
102
RTVSPost2010PropOp51
 70
     0
102
RTVSPost2010Prop52
140
1.0
102
RTVSPost2010PropOp52
 70
     0
102
RTVSPost2010Prop53
 90
        2
102
RTVSPost2010PropOp53
 70
     1
102
RTVSPost2010Prop54
  1
strokes_ogs.tif
102
RTVSPost2010PropOp54
 70
     1
102
RTVSPost2010Prop55
280
     0
102
RTVSPost2010PropOp55
 70
     1
102
RTVSPost2010Prop56
140
1.0
102
RTVSPost2010PropOp56
 70
     1
102
RTVSPost2010Prop57
140
1.0
102
RTVSPost2010PropOp57
 70
     1
  0
XRECORD
  5
136
102
{ACAD_REACTORS
330
135
102
}
330
135
100
AcDbXrecord
280
     1
102
RTVSPropertyOp0
 70
     1
102
RTVSPropertyOp1
 70
     1
102
RTVSPropertyOp2
 70
     1
102
RTVSPropertyOp3
 70
     1
102
RTVSPropertyOp4
 70
     1
102
RTVSPropertyOp5
 70
     1
102
RTVSPropertyOp6
 70
     1
102
RTVSPropertyOp7
 70
     1
102
RTVSPropertyOp8
 70
     1
102
RTVSPropertyOp9
 70
     1
102
RTVSPropertyOp10
 70
     1
102
RTVSPropertyOp11
 70
     1
102
RTVSPropertyOp12
 70
     1
102
RTVSPropertyOp13
 70
     1
102
RTVSPropertyOp14
 70
     1
102
RTVSPropertyOp15
 70
     1
102
RTVSPropertyOp16
 70
     1
102
RTVSPropertyOp17
 70
     1
102
RTVSPropertyOp18
 70
     1
102
RTVSPropertyOp19
 70
     1
102
RTVSPropertyOp20
 70
     1
102
RTVSPropertyOp21
 70
     1
102
RTVSPropertyOp22
 70
     1
102
RTVSPropertyOp23
 70
     1
102
RTVSPropertyOp24
 70
     1
102
RTVSPropertyOp25
 70
     1
102
RTVSPropertyOp26
 70
     1
102
RTVSPropertyOp27
 70
     1
102
RTVSPropertyOp28
 70
     1
102
RTVSPropertyOp29
 70
     1
102
RTVSPropertyOp30
 70
     1
102
RTVSPropertyOp31
 70
     1
102
RTVSPropertyOp32
 70
     1
102
RTVSPropertyOp33
 70
     1
102
RTVSPropertyOp34
 70
     1
102
RTVSPropertyOp35
 70
     1
102
RTVSPropertyOp36
 70
     1
102
RTVSPropertyOp37
 70
     1
102
RTVSPropertyOp38
 70
     1
102
RTVSPropertyOp39
 70
     1
102
RTVSPropertyOp40
 70
     1
102
RTVSPropertyOp41
 70
     1
102
RTVSPropertyOp42
 70
     1
102
RTVSPropertyOp43
 70
     1
102
RTVSPropertyOp44
 70
     1
102
RTVSPropertyOp45
 70
     1
102
RTVSPropertyOp46
 70
     1
102
RTVSPropertyOp47
 70
     1
102
RTVSPropertyOp48
 70
     1
102
RTVSPropertyOp49
 70
     1
102
RTVSPropertyOp50
 70
     1
102
RTVSPropertyOp51
 70
     0
102
RTVSPropertyOp52
 70
     0
102
RTVSPropertyOp53
 70
     1
102
RTVSPropertyOp54
 70
     1
102
RTVSPropertyOp55
 70
     1
102
RTVSPropertyOp56
 70
     1
102
RTVSPropertyOp57
 70
     1
102
RTVSPost2010Prop28
280
     0
102
RTVSPost2010PropOp28
 70
     1
102
RTVSPost2010Prop29
280
     1
102
RTVSPost2010PropOp29
 70
     1
102
RTVSPost2010Prop30
280
     1
102
RTVSPost2010PropOp30
 70
     1
102
RTVSPost2010Prop31
280
     0
102
RTVSPost2010PropOp31
 70
     1
102
RTVSPost2010Prop32
280
     0
102
RTVSPost2010PropOp32
 70
     1
102
RTVSPost2010Prop33
280
     0
102
RTVSPost2010PropOp33
 70
     1
102
RTVSPost2010Prop34
280
     0
102
RTVSPost2010PropOp34
 70
     1
102
RTVSPost2010Prop35
280
     0
102
RTVSPost2010PropOp35
 70
     1
102
RTVSPost2010Prop36
280
     0
102
RTVSPost2010PropOp36
 70
     1
102
RTVSPost2010Prop37
 90
       50
102
RTVSPost2010PropOp37
 70
     1
102
RTVSPost2010Prop38
140
0.0
102
RTVSPost2010PropOp38
 70
     1
102
RTVSPost2010Prop39
140
1.0
102
RTVSPost2010PropOp39
 70
     1
102
RTVSPost2010Prop40
 90
        0
102
RTVSPost2010PropOp40
 70
     1
102
RTVSPost2010Prop41ColorIndex
 90
       18
102
RTVSPost2010Prop41ColorRGB
 90
        0
102
RTVSPost2010PropOp41
 70
     1
102
RTVSPost2010Prop42
 90
       50
102
RTVSPost2010PropOp42
 70
     1
102
RTVSPost2010Prop43
 90
        3
102
RTVSPost2010PropOp43
 70
     1
102
RTVSPost2010Prop44ColorIndex
 90
        5
102
RTVSPost2010Prop44ColorRGB
 90
      255
102
RTVSPost2010PropOp44
 70
     1
102
RTVSPost2010Prop45
280
     0
102
RTVSPost2010PropOp45
 70
     1
102
RTVSPost2010Prop46
 90
       50
102
RTVSPost2010PropOp46
 70
     1
102
RTVSPost2010Prop47
 90
       50
102
RTVSPost2010PropOp47
 70
     1
102
RTVSPost2010Prop48
 90
       50
102
RTVSPost2010PropOp48
 70
     1
102
RTVSPost2010Prop49
280
     0
102
RTVSPost2010PropOp49
 70
     1
102
RTVSPost2010Prop50
 90
       50
102
RTVSPost2010PropOp50
 70
     1
102
RTVSPost2010Prop51ColorIndex
 90
      256
102
RTVSPost2010Prop51ColorRGB
 90
-16777216
102
RTVSPost2010PropOp51
 70
     0
102
RTVSPost2010Prop52
140
1.0
102
RTVSPost2010PropOp52
 70
     0
102
RTVSPost2010Prop53
 90
        2
102
RTVSPost2010PropOp53
 70
     1
102
RTVSPost2010Prop54
  1
strokes_ogs.tif
102
RTVSPost2010PropOp54
 70
     1
102
RTVSPost2010Prop55
280
     0
102
RTVSPost2010PropOp55
 70
     1
102
RTVSPost2010Prop56
140
1.0
102
RTVSPost2010PropOp56
 70
     1
102
RTVSPost2010Prop57
140
1.0
102
RTVSPost2010PropOp57
 70
     1
  0
XRECORD
  5
146
102
{ACAD_REACTORS
330
145
102
}
330
145
100
AcDbXrecord
280
     1
102
RTVSPropertyOp0
 70
     0
102
RTVSPropertyOp1
 70
     0
102
RTVSPropertyOp2
 70
     0
102
RTVSPropertyOp3
 70
     0
102
RTVSPropertyOp4
 70
     0
102
RTVSPropertyOp5
 70
     0
102
RTVSPropertyOp6
 70
     0
102
RTVSPropertyOp7
 70
     0
102
RTVSPropertyOp8
 70
     0
102
RTVSPropertyOp9
 70
     0
102
RTVSPropertyOp10
 70
     0
102
RTVSPropertyOp11
 70
     0
102
RTVSPropertyOp12
 70
     0
102
RTVSPropertyOp13
 70
     0
102
RTVSPropertyOp14
 70
     2
102
RTVSPropertyOp15
 70
     0
102
RTVSPropertyOp16
 70
     0
102
RTVSPropertyOp17
 70
     0
102
RTVSPropertyOp18
 70
     0
102
RTVSPropertyOp19
 70
     0
102
RTVSPropertyOp20
 70
     0
102
RTVSPropertyOp21
 70
     0
102
RTVSPropertyOp22
 70
     0
102
RTVSPropertyOp23
 70
     0
102
RTVSPropertyOp24
 70
     0
102
RTVSPropertyOp25
 70
     0
102
RTVSPropertyOp26
 70
     0
102
RTVSPropertyOp27
 70
     0
102
RTVSPropertyOp28
 70
     0
102
RTVSPropertyOp29
 70
     0
102
RTVSPropertyOp30
 70
     0
102
RTVSPropertyOp31
 70
     0
102
RTVSPropertyOp32
 70
     0
102
RTVSPropertyOp33
 70
     0
102
RTVSPropertyOp34
 70
     0
102
RTVSPropertyOp35
 70
     0
102
RTVSPropertyOp36
 70
     0
102
RTVSPropertyOp37
 70
     0
102
RTVSPropertyOp38
 70
     0
102
RTVSPropertyOp39
 70
     0
102
RTVSPropertyOp40
 70
     0
102
RTVSPropertyOp41
 70
     0
102
RTVSPropertyOp42
 70
     0
102
RTVSPropertyOp43
 70
     0
102
RTVSPropertyOp44
 70
     0
102
RTVSPropertyOp45
 70
     0
102
RTVSPropertyOp46
 70
     0
102
RTVSPropertyOp47
 70
     0
102
RTVSPropertyOp48
 70
     0
102
RTVSPropertyOp49
 70
     0
102
RTVSPropertyOp50
 70
     0
102
RTVSPropertyOp51
 70
     0
102
RTVSPropertyOp52
 70
     0
102
RTVSPropertyOp53
 70
     0
102
RTVSPropertyOp54
 70
     0
102
RTVSPropertyOp55
 70
     0
102
RTVSPropertyOp56
 70
     0
102
RTVSPropertyOp57
 70
     0
102
RTVSPost2010Prop28
280
     0
102
RTVSPost2010PropOp28
 70
     0
102
RTVSPost2010Prop29
280
     1
102
RTVSPost2010PropOp29
 70
     0
102
RTVSPost2010Prop30
280
     1
102
RTVSPost2010PropOp30
 70
     0
102
RTVSPost2010Prop31
280
     0
102
RTVSPost2010PropOp31
 70
     0
102
RTVSPost2010Prop32
280
     0
102
RTVSPost2010PropOp32
 70
     0
102
RTVSPost2010Prop33
280
     0
102
RTVSPost2010PropOp33
 70
     0
102
RTVSPost2010Prop34
280
     0
102
RTVSPost2010PropOp34
 70
     0
102
RTVSPost2010Prop35
280
     0
102
RTVSPost2010PropOp35
 70
     0
102
RTVSPost2010Prop36
280
     0
102
RTVSPost2010PropOp36
 70
     0
102
RTVSPost2010Prop37
 90
       50
102
RTVSPost2010PropOp37
 70
     0
102
RTVSPost2010Prop38
140
0.0
102
RTVSPost2010PropOp38
 70
     0
102
RTVSPost2010Prop39
140
1.0
102
RTVSPost2010PropOp39
 70
     0
102
RTVSPost2010Prop40
 90
        0
102
RTVSPost2010PropOp40
 70
     0
102
RTVSPost2010Prop41ColorIndex
 90
       18
102
RTVSPost2010Prop41ColorRGB
 90
        0
102
RTVSPost2010PropOp41
 70
     0
102
RTVSPost2010Prop42
 90
       50
102
RTVSPost2010PropOp42
 70
     0
102
RTVSPost2010Prop43
 90
        3
102
RTVSPost2010PropOp43
 70
     0
102
RTVSPost2010Prop44ColorIndex
 90
        5
102
RTVSPost2010Prop44ColorRGB
 90
      255
102
RTVSPost2010PropOp44
 70
     0
102
RTVSPost2010Prop45
280
     0
102
RTVSPost2010PropOp45
 70
     0
102
RTVSPost2010Prop46
 90
       50
102
RTVSPost2010PropOp46
 70
     0
102
RTVSPost2010Prop47
 90
       50
102
RTVSPost2010PropOp47
 70
     0
102
RTVSPost2010Prop48
 90
       50
102
RTVSPost2010PropOp48
 70
     0
102
RTVSPost2010Prop49
280
     0
102
RTVSPost2010PropOp49
 70
     0
102
RTVSPost2010Prop50
 90
       50
102
RTVSPost2010PropOp50
 70
     0
102
RTVSPost2010Prop51ColorIndex
 90
      256
102
RTVSPost2010Prop51ColorRGB
 90
-16777216
102
RTVSPost2010PropOp51
 70
     0
102
RTVSPost2010Prop52
140
1.0
102
RTVSPost2010PropOp52
 70
     0
102
RTVSPost2010Prop53
 90
        2
102
RTVSPost2010PropOp53
 70
     0
102
RTVSPost2010Prop54
  1
strokes_ogs.tif
102
RTVSPost2010PropOp54
 70
     0
102
RTVSPost2010Prop55
280
     0
102
RTVSPost2010PropOp55
 70
     0
102
RTVSPost2010Prop56
140
1.0
102
RTVSPost2010PropOp56
 70
     0
102
RTVSPost2010Prop57
140
1.0
102
RTVSPost2010PropOp57
 70
     0
  0
XRECORD
  5
13E
102
{ACAD_REACTORS
330
13D
102
}
330
13D
100
AcDbXrecord
280
     1
102
RTVSPropertyOp0
 70
     1
102
RTVSPropertyOp1
 70
     1
102
RTVSPropertyOp2
 70
     1
102
RTVSPropertyOp3
 70
     1
102
RTVSPropertyOp4
 70
     1
102
RTVSPropertyOp5
 70
     1
102
RTVSPropertyOp6
 70
     1
102
RTVSPropertyOp7
 70
     1
102
RTVSPropertyOp8
 70
     1
102
RTVSPropertyOp9
 70
     1
102
RTVSPropertyOp10
 70
     1
102
RTVSPropertyOp11
 70
     1
102
RTVSPropertyOp12
 70
     1
102
RTVSPropertyOp13
 70
     1
102
RTVSPropertyOp14
 70
     1
102
RTVSPropertyOp15
 70
     1
102
RTVSPropertyOp16
 70
     1
102
RTVSPropertyOp17
 70
     1
102
RTVSPropertyOp18
 70
     1
102
RTVSPropertyOp19
 70
     1
102
RTVSPropertyOp20
 70
     1
102
RTVSPropertyOp21
 70
     1
102
RTVSPropertyOp22
 70
     1
102
RTVSPropertyOp23
 70
     1
102
RTVSPropertyOp24
 70
     1
102
RTVSPropertyOp25
 70
     1
102
RTVSPropertyOp26
 70
     1
102
RTVSPropertyOp27
 70
     1
102
RTVSPropertyOp28
 70
     1
102
RTVSPropertyOp29
 70
     1
102
RTVSPropertyOp30
 70
     1
102
RTVSPropertyOp31
 70
     1
102
RTVSPropertyOp32
 70
     1
102
RTVSPropertyOp33
 70
     1
102
RTVSPropertyOp34
 70
     1
102
RTVSPropertyOp35
 70
     1
102
RTVSPropertyOp36
 70
     1
102
RTVSPropertyOp37
 70
     1
102
RTVSPropertyOp38
 70
     1
102
RTVSPropertyOp39
 70
     1
102
RTVSPropertyOp40
 70
     1
102
RTVSPropertyOp41
 70
     1
102
RTVSPropertyOp42
 70
     1
102
RTVSPropertyOp43
 70
     1
102
RTVSPropertyOp44
 70
     1
102
RTVSPropertyOp45
 70
     1
102
RTVSPropertyOp46
 70
     1
102
RTVSPropertyOp47
 70
     1
102
RTVSPropertyOp48
 70
     1
102
RTVSPropertyOp49
 70
     1
102
RTVSPropertyOp50
 70
     1
102
RTVSPropertyOp51
 70
     0
102
RTVSPropertyOp52
 70
     0
102
RTVSPropertyOp53
 70
     1
102
RTVSPropertyOp54
 70
     1
102
RTVSPropertyOp55
 70
     1
102
RTVSPropertyOp56
 70
     1
102
RTVSPropertyOp57
 70
     1
102
RTVSPost2010Prop28
280
     0
102
RTVSPost2010PropOp28
 70
     1
102
RTVSPost2010Prop29
280
     1
102
RTVSPost2010PropOp29
 70
     1
102
RTVSPost2010Prop30
280
     1
102
RTVSPost2010PropOp30
 70
     1
102
RTVSPost2010Prop31
280
     0
102
RTVSPost2010PropOp31
 70
     1
102
RTVSPost2010Prop32
280
     0
102
RTVSPost2010PropOp32
 70
     1
102
RTVSPost2010Prop33
280
     0
102
RTVSPost2010PropOp33
 70
     1
102
RTVSPost2010Prop34
280
     0
102
RTVSPost2010PropOp34
 70
     1
102
RTVSPost2010Prop35
280
     0
102
RTVSPost2010PropOp35
 70
     1
102
RTVSPost2010Prop36
280
     0
102
RTVSPost2010PropOp36
 70
     1
102
RTVSPost2010Prop37
 90
       50
102
RTVSPost2010PropOp37
 70
     1
102
RTVSPost2010Prop38
140
0.0
102
RTVSPost2010PropOp38
 70
     1
102
RTVSPost2010Prop39
140
1.0
102
RTVSPost2010PropOp39
 70
     1
102
RTVSPost2010Prop40
 90
        0
102
RTVSPost2010PropOp40
 70
     1
102
RTVSPost2010Prop41ColorIndex
 90
       18
102
RTVSPost2010Prop41ColorRGB
 90
        0
102
RTVSPost2010PropOp41
 70
     1
102
RTVSPost2010Prop42
 90
       50
102
RTVSPost2010PropOp42
 70
     1
102
RTVSPost2010Prop43
 90
        3
102
RTVSPost2010PropOp43
 70
     1
102
RTVSPost2010Prop44ColorIndex
 90
        5
102
RTVSPost2010Prop44ColorRGB
 90
      255
102
RTVSPost2010PropOp44
 70
     1
102
RTVSPost2010Prop45
280
     0
102
RTVSPost2010PropOp45
 70
     1
102
RTVSPost2010Prop46
 90
       50
102
RTVSPost2010PropOp46
 70
     1
102
RTVSPost2010Prop47
 90
       50
102
RTVSPost2010PropOp47
 70
     1
102
RTVSPost2010Prop48
 90
       50
102
RTVSPost2010PropOp48
 70
     1
102
RTVSPost2010Prop49
280
     0
102
RTVSPost2010PropOp49
 70
     1
102
RTVSPost2010Prop50
 90
       50
102
RTVSPost2010PropOp50
 70
     1
102
RTVSPost2010Prop51ColorIndex
 90
      256
102
RTVSPost2010Prop51ColorRGB
 90
-16777216
102
RTVSPost2010PropOp51
 70
     0
102
RTVSPost2010Prop52
140
1.0
102
RTVSPost2010PropOp52
 70
     0
102
RTVSPost2010Prop53
 90
        2
102
RTVSPost2010PropOp53
 70
     1
102
RTVSPost2010Prop54
  1
strokes_ogs.tif
102
RTVSPost2010PropOp54
 70
     1
102
RTVSPost2010Prop55
280
     0
102
RTVSPost2010PropOp55
 70
     1
102
RTVSPost2010Prop56
140
1.0
102
RTVSPost2010PropOp56
 70
     1
102
RTVSPost2010Prop57
140
1.0
102
RTVSPost2010PropOp57
 70
     1
  0
XRECORD
  5
122
102
{ACAD_REACTORS
330
121
102
}
330
121
100
AcDbXrecord
280
     1
102
RTVSPropertyOp0
 70
     1
102
RTVSPropertyOp1
 70
     1
102
RTVSPropertyOp2
 70
     1
102
RTVSPropertyOp3
 70
     1
102
RTVSPropertyOp4
 70
     1
102
RTVSPropertyOp5
 70
     1
102
RTVSPropertyOp6
 70
     1
102
RTVSPropertyOp7
 70
     1
102
RTVSPropertyOp8
 70
     1
102
RTVSPropertyOp9
 70
     1
102
RTVSPropertyOp10
 70
     1
102
RTVSPropertyOp11
 70
     1
102
RTVSPropertyOp12
 70
     1
102
RTVSPropertyOp13
 70
     1
102
RTVSPropertyOp14
 70
     1
102
RTVSPropertyOp15
 70
     1
102
RTVSPropertyOp16
 70
     1
102
RTVSPropertyOp17
 70
     1
102
RTVSPropertyOp18
 70
     1
102
RTVSPropertyOp19
 70
     1
102
RTVSPropertyOp20
 70
     1
102
RTVSPropertyOp21
 70
     1
102
RTVSPropertyOp22
 70
     1
102
RTVSPropertyOp23
 70
     1
102
RTVSPropertyOp24
 70
     1
102
RTVSPropertyOp25
 70
     1
102
RTVSPropertyOp26
 70
     1
102
RTVSPropertyOp27
 70
     1
102
RTVSPropertyOp28
 70
     1
102
RTVSPropertyOp29
 70
     1
102
RTVSPropertyOp30
 70
     1
102
RTVSPropertyOp31
 70
     1
102
RTVSPropertyOp32
 70
     1
102
RTVSPropertyOp33
 70
     1
102
RTVSPropertyOp34
 70
     1
102
RTVSPropertyOp35
 70
     1
102
RTVSPropertyOp36
 70
     1
102
RTVSPropertyOp37
 70
     1
102
RTVSPropertyOp38
 70
     1
102
RTVSPropertyOp39
 70
     1
102
RTVSPropertyOp40
 70
     1
102
RTVSPropertyOp41
 70
     1
102
RTVSPropertyOp42
 70
     1
102
RTVSPropertyOp43
 70
     1
102
RTVSPropertyOp44
 70
     1
102
RTVSPropertyOp45
 70
     1
102
RTVSPropertyOp46
 70
     1
102
RTVSPropertyOp47
 70
     1
102
RTVSPropertyOp48
 70
     1
102
RTVSPropertyOp49
 70
     1
102
RTVSPropertyOp50
 70
     1
102
RTVSPropertyOp51
 70
     0
102
RTVSPropertyOp52
 70
     0
102
RTVSPropertyOp53
 70
     1
102
RTVSPropertyOp54
 70
     1
102
RTVSPropertyOp55
 70
     1
102
RTVSPropertyOp56
 70
     1
102
RTVSPropertyOp57
 70
     1
102
RTVSPost2010Prop28
280
     0
102
RTVSPost2010PropOp28
 70
     1
102
RTVSPost2010Prop29
280
     1
102
RTVSPost2010PropOp29
 70
     1
102
RTVSPost2010Prop30
280
     1
102
RTVSPost2010PropOp30
 70
     1
102
RTVSPost2010Prop31
280
     0
102
RTVSPost2010PropOp31
 70
     1
102
RTVSPost2010Prop32
280
     0
102
RTVSPost2010PropOp32
 70
     1
102
RTVSPost2010Prop33
280
     0
102
RTVSPost2010PropOp33
 70
     1
102
RTVSPost2010Prop34
280
     0
102
RTVSPost2010PropOp34
 70
     1
102
RTVSPost2010Prop35
280
     0
102
RTVSPost2010PropOp35
 70
     1
102
RTVSPost2010Prop36
280
     0
102
RTVSPost2010PropOp36
 70
     1
102
RTVSPost2010Prop37
 90
       50
102
RTVSPost2010PropOp37
 70
     1
102
RTVSPost2010Prop38
140
0.0
102
RTVSPost2010PropOp38
 70
     1
102
RTVSPost2010Prop39
140
1.0
102
RTVSPost2010PropOp39
 70
     1
102
RTVSPost2010Prop40
 90
        0
102
RTVSPost2010PropOp40
 70
     1
102
RTVSPost2010Prop41ColorIndex
 90
       18
102
RTVSPost2010Prop41ColorRGB
 90
        0
102
RTVSPost2010PropOp41
 70
     1
102
RTVSPost2010Prop42
 90
       50
102
RTVSPost2010PropOp42
 70
     1
102
RTVSPost2010Prop43
 90
        3
102
RTVSPost2010PropOp43
 70
     1
102
RTVSPost2010Prop44ColorIndex
 90
        5
102
RTVSPost2010Prop44ColorRGB
 90
      255
102
RTVSPost2010PropOp44
 70
     1
102
RTVSPost2010Prop45
280
     0
102
RTVSPost2010PropOp45
 70
     1
102
RTVSPost2010Prop46
 90
       50
102
RTVSPost2010PropOp46
 70
     1
102
RTVSPost2010Prop47
 90
       50
102
RTVSPost2010PropOp47
 70
     1
102
RTVSPost2010Prop48
 90
       50
102
RTVSPost2010PropOp48
 70
     1
102
RTVSPost2010Prop49
280
     0
102
RTVSPost2010PropOp49
 70
     1
102
RTVSPost2010Prop50
 90
       50
102
RTVSPost2010PropOp50
 70
     1
102
RTVSPost2010Prop51ColorIndex
 90
      256
102
RTVSPost2010Prop51ColorRGB
 90
-16777216
102
RTVSPost2010PropOp51
 70
     0
102
RTVSPost2010Prop52
140
1.0
102
RTVSPost2010PropOp52
 70
     0
102
RTVSPost2010Prop53
 90
        2
102
RTVSPost2010PropOp53
 70
     1
102
RTVSPost2010Prop54
  1
strokes_ogs.tif
102
RTVSPost2010PropOp54
 70
     1
102
RTVSPost2010Prop55
280
     0
102
RTVSPost2010PropOp55
 70
     1
102
RTVSPost2010Prop56
140
1.0
102
RTVSPost2010PropOp56
 70
     1
102
RTVSPost2010Prop57
140
1.0
102
RTVSPost2010PropOp57
 70
     1
  0
XRECORD
  5
124
102
{ACAD_REACTORS
330
123
102
}
330
123
100
AcDbXrecord
280
     1
102
RTVSPropertyOp0
 70
     1
102
RTVSPropertyOp1
 70
     1
102
RTVSPropertyOp2
 70
     1
102
RTVSPropertyOp3
 70
     1
102
RTVSPropertyOp4
 70
     1
102
RTVSPropertyOp5
 70
     1
102
RTVSPropertyOp6
 70
     1
102
RTVSPropertyOp7
 70
     1
102
RTVSPropertyOp8
 70
     1
102
RTVSPropertyOp9
 70
     1
102
RTVSPropertyOp10
 70
     1
102
RTVSPropertyOp11
 70
     1
102
RTVSPropertyOp12
 70
     1
102
RTVSPropertyOp13
 70
     1
102
RTVSPropertyOp14
 70
     1
102
RTVSPropertyOp15
 70
     1
102
RTVSPropertyOp16
 70
     1
102
RTVSPropertyOp17
 70
     1
102
RTVSPropertyOp18
 70
     1
102
RTVSPropertyOp19
 70
     1
102
RTVSPropertyOp20
 70
     1
102
RTVSPropertyOp21
 70
     1
102
RTVSPropertyOp22
 70
     1
102
RTVSPropertyOp23
 70
     1
102
RTVSPropertyOp24
 70
     1
102
RTVSPropertyOp25
 70
     1
102
RTVSPropertyOp26
 70
     1
102
RTVSPropertyOp27
 70
     1
102
RTVSPropertyOp28
 70
     1
102
RTVSPropertyOp29
 70
     1
102
RTVSPropertyOp30
 70
     1
102
RTVSPropertyOp31
 70
     1
102
RTVSPropertyOp32
 70
     1
102
RTVSPropertyOp33
 70
     1
102
RTVSPropertyOp34
 70
     1
102
RTVSPropertyOp35
 70
     1
102
RTVSPropertyOp36
 70
     1
102
RTVSPropertyOp37
 70
     1
102
RTVSPropertyOp38
 70
     1
102
RTVSPropertyOp39
 70
     1
102
RTVSPropertyOp40
 70
     1
102
RTVSPropertyOp41
 70
     1
102
RTVSPropertyOp42
 70
     1
102
RTVSPropertyOp43
 70
     1
102
RTVSPropertyOp44
 70
     1
102
RTVSPropertyOp45
 70
     1
102
RTVSPropertyOp46
 70
     1
102
RTVSPropertyOp47
 70
     1
102
RTVSPropertyOp48
 70
     1
102
RTVSPropertyOp49
 70
     1
102
RTVSPropertyOp50
 70
     1
102
RTVSPropertyOp51
 70
     0
102
RTVSPropertyOp52
 70
     0
102
RTVSPropertyOp53
 70
     1
102
RTVSPropertyOp54
 70
     1
102
RTVSPropertyOp55
 70
     1
102
RTVSPropertyOp56
 70
     1
102
RTVSPropertyOp57
 70
     1
102
RTVSPost2010Prop28
280
     0
102
RTVSPost2010PropOp28
 70
     1
102
RTVSPost2010Prop29
280
     1
102
RTVSPost2010PropOp29
 70
     1
102
RTVSPost2010Prop30
280
     1
102
RTVSPost2010PropOp30
 70
     1
102
RTVSPost2010Prop31
280
     0
102
RTVSPost2010PropOp31
 70
     1
102
RTVSPost2010Prop32
280
     0
102
RTVSPost2010PropOp32
 70
     1
102
RTVSPost2010Prop33
280
     0
102
RTVSPost2010PropOp33
 70
     1
102
RTVSPost2010Prop34
280
     0
102
RTVSPost2010PropOp34
 70
     1
102
RTVSPost2010Prop35
280
     0
102
RTVSPost2010PropOp35
 70
     1
102
RTVSPost2010Prop36
280
     0
102
RTVSPost2010PropOp36
 70
     1
102
RTVSPost2010Prop37
 90
       50
102
RTVSPost2010PropOp37
 70
     1
102
RTVSPost2010Prop38
140
0.0
102
RTVSPost2010PropOp38
 70
     1
102
RTVSPost2010Prop39
140
1.0
102
RTVSPost2010PropOp39
 70
     1
102
RTVSPost2010Prop40
 90
        0
102
RTVSPost2010PropOp40
 70
     1
102
RTVSPost2010Prop41ColorIndex
 90
       18
102
RTVSPost2010Prop41ColorRGB
 90
        0
102
RTVSPost2010PropOp41
 70
     1
102
RTVSPost2010Prop42
 90
       50
102
RTVSPost2010PropOp42
 70
     1
102
RTVSPost2010Prop43
 90
        3
102
RTVSPost2010PropOp43
 70
     1
102
RTVSPost2010Prop44ColorIndex
 90
        5
102
RTVSPost2010Prop44ColorRGB
 90
      255
102
RTVSPost2010PropOp44
 70
     1
102
RTVSPost2010Prop45
280
     0
102
RTVSPost2010PropOp45
 70
     1
102
RTVSPost2010Prop46
 90
       50
102
RTVSPost2010PropOp46
 70
     1
102
RTVSPost2010Prop47
 90
       50
102
RTVSPost2010PropOp47
 70
     1
102
RTVSPost2010Prop48
 90
       50
102
RTVSPost2010PropOp48
 70
     1
102
RTVSPost2010Prop49
280
     0
102
RTVSPost2010PropOp49
 70
     1
102
RTVSPost2010Prop50
 90
       50
102
RTVSPost2010PropOp50
 70
     1
102
RTVSPost2010Prop51ColorIndex
 90
      256
102
RTVSPost2010Prop51ColorRGB
 90
-16777216
102
RTVSPost2010PropOp51
 70
     0
102
RTVSPost2010Prop52
140
1.0
102
RTVSPost2010PropOp52
 70
     0
102
RTVSPost2010Prop53
 90
        2
102
RTVSPost2010PropOp53
 70
     1
102
RTVSPost2010Prop54
  1
strokes_ogs.tif
102
RTVSPost2010PropOp54
 70
     1
102
RTVSPost2010Prop55
280
     0
102
RTVSPost2010PropOp55
 70
     1
102
RTVSPost2010Prop56
140
1.0
102
RTVSPost2010PropOp56
 70
     1
102
RTVSPost2010Prop57
140
1.0
102
RTVSPost2010PropOp57
 70
     1
  0
XRECORD
  5
126
102
{ACAD_REACTORS
330
125
102
}
330
125
100
AcDbXrecord
280
     1
102
RTVSPropertyOp0
 70
     1
102
RTVSPropertyOp1
 70
     1
102
RTVSPropertyOp2
 70
     1
102
RTVSPropertyOp3
 70
     1
102
RTVSPropertyOp4
 70
     1
102
RTVSPropertyOp5
 70
     1
102
RTVSPropertyOp6
 70
     1
102
RTVSPropertyOp7
 70
     1
102
RTVSPropertyOp8
 70
     1
102
RTVSPropertyOp9
 70
     1
102
RTVSPropertyOp10
 70
     1
102
RTVSPropertyOp11
 70
     1
102
RTVSPropertyOp12
 70
     1
102
RTVSPropertyOp13
 70
     1
102
RTVSPropertyOp14
 70
     1
102
RTVSPropertyOp15
 70
     1
102
RTVSPropertyOp16
 70
     1
102
RTVSPropertyOp17
 70
     1
102
RTVSPropertyOp18
 70
     1
102
RTVSPropertyOp19
 70
     1
102
RTVSPropertyOp20
 70
     1
102
RTVSPropertyOp21
 70
     1
102
RTVSPropertyOp22
 70
     1
102
RTVSPropertyOp23
 70
     1
102
RTVSPropertyOp24
 70
     1
102
RTVSPropertyOp25
 70
     1
102
RTVSPropertyOp26
 70
     1
102
RTVSPropertyOp27
 70
     1
102
RTVSPropertyOp28
 70
     1
102
RTVSPropertyOp29
 70
     1
102
RTVSPropertyOp30
 70
     1
102
RTVSPropertyOp31
 70
     1
102
RTVSPropertyOp32
 70
     1
102
RTVSPropertyOp33
 70
     1
102
RTVSPropertyOp34
 70
     1
102
RTVSPropertyOp35
 70
     1
102
RTVSPropertyOp36
 70
     1
102
RTVSPropertyOp37
 70
     1
102
RTVSPropertyOp38
 70
     1
102
RTVSPropertyOp39
 70
     1
102
RTVSPropertyOp40
 70
     1
102
RTVSPropertyOp41
 70
     1
102
RTVSPropertyOp42
 70
     1
102
RTVSPropertyOp43
 70
     1
102
RTVSPropertyOp44
 70
     1
102
RTVSPropertyOp45
 70
     1
102
RTVSPropertyOp46
 70
     1
102
RTVSPropertyOp47
 70
     1
102
RTVSPropertyOp48
 70
     1
102
RTVSPropertyOp49
 70
     1
102
RTVSPropertyOp50
 70
     1
102
RTVSPropertyOp51
 70
     0
102
RTVSPropertyOp52
 70
     0
102
RTVSPropertyOp53
 70
     1
102
RTVSPropertyOp54
 70
     1
102
RTVSPropertyOp55
 70
     1
102
RTVSPropertyOp56
 70
     1
102
RTVSPropertyOp57
 70
     1
102
RTVSPost2010Prop28
280
     0
102
RTVSPost2010PropOp28
 70
     1
102
RTVSPost2010Prop29
280
     1
102
RTVSPost2010PropOp29
 70
     1
102
RTVSPost2010Prop30
280
     1
102
RTVSPost2010PropOp30
 70
     1
102
RTVSPost2010Prop31
280
     0
102
RTVSPost2010PropOp31
 70
     1
102
RTVSPost2010Prop32
280
     0
102
RTVSPost2010PropOp32
 70
     1
102
RTVSPost2010Prop33
280
     0
102
RTVSPost2010PropOp33
 70
     1
102
RTVSPost2010Prop34
280
     0
102
RTVSPost2010PropOp34
 70
     1
102
RTVSPost2010Prop35
280
     0
102
RTVSPost2010PropOp35
 70
     1
102
RTVSPost2010Prop36
280
     0
102
RTVSPost2010PropOp36
 70
     1
102
RTVSPost2010Prop37
 90
       50
102
RTVSPost2010PropOp37
 70
     1
102
RTVSPost2010Prop38
140
0.0
102
RTVSPost2010PropOp38
 70
     1
102
RTVSPost2010Prop39
140
1.0
102
RTVSPost2010PropOp39
 70
     1
102
RTVSPost2010Prop40
 90
        0
102
RTVSPost2010PropOp40
 70
     1
102
RTVSPost2010Prop41ColorIndex
 90
       18
102
RTVSPost2010Prop41ColorRGB
 90
        0
102
RTVSPost2010PropOp41
 70
     1
102
RTVSPost2010Prop42
 90
       50
102
RTVSPost2010PropOp42
 70
     1
102
RTVSPost2010Prop43
 90
        3
102
RTVSPost2010PropOp43
 70
     1
102
RTVSPost2010Prop44ColorIndex
 90
        5
102
RTVSPost2010Prop44ColorRGB
 90
      255
102
RTVSPost2010PropOp44
 70
     1
102
RTVSPost2010Prop45
280
     0
102
RTVSPost2010PropOp45
 70
     1
102
RTVSPost2010Prop46
 90
       50
102
RTVSPost2010PropOp46
 70
     1
102
RTVSPost2010Prop47
 90
       50
102
RTVSPost2010PropOp47
 70
     1
102
RTVSPost2010Prop48
 90
       50
102
RTVSPost2010PropOp48
 70
     1
102
RTVSPost2010Prop49
280
     0
102
RTVSPost2010PropOp49
 70
     1
102
RTVSPost2010Prop50
 90
       50
102
RTVSPost2010PropOp50
 70
     1
102
RTVSPost2010Prop51ColorIndex
 90
      256
102
RTVSPost2010Prop51ColorRGB
 90
-16777216
102
RTVSPost2010PropOp51
 70
     0
102
RTVSPost2010Prop52
140
1.0
102
RTVSPost2010PropOp52
 70
     0
102
RTVSPost2010Prop53
 90
        2
102
RTVSPost2010PropOp53
 70
     1
102
RTVSPost2010Prop54
  1
strokes_ogs.tif
102
RTVSPost2010PropOp54
 70
     1
102
RTVSPost2010Prop55
280
     0
102
RTVSPost2010PropOp55
 70
     1
102
RTVSPost2010Prop56
140
1.0
102
RTVSPost2010PropOp56
 70
     1
102
RTVSPost2010Prop57
140
1.0
102
RTVSPost2010PropOp57
 70
     1
  0
XRECORD
  5
128
102
{ACAD_REACTORS
330
127
102
}
330
127
100
AcDbXrecord
280
     1
102
RTVSPropertyOp0
 70
     1
102
RTVSPropertyOp1
 70
     1
102
RTVSPropertyOp2
 70
     1
102
RTVSPropertyOp3
 70
     1
102
RTVSPropertyOp4
 70
     1
102
RTVSPropertyOp5
 70
     1
102
RTVSPropertyOp6
 70
     1
102
RTVSPropertyOp7
 70
     1
102
RTVSPropertyOp8
 70
     1
102
RTVSPropertyOp9
 70
     1
102
RTVSPropertyOp10
 70
     1
102
RTVSPropertyOp11
 70
     1
102
RTVSPropertyOp12
 70
     1
102
RTVSPropertyOp13
 70
     1
102
RTVSPropertyOp14
 70
     1
102
RTVSPropertyOp15
 70
     1
102
RTVSPropertyOp16
 70
     1
102
RTVSPropertyOp17
 70
     1
102
RTVSPropertyOp18
 70
     1
102
RTVSPropertyOp19
 70
     1
102
RTVSPropertyOp20
 70
     1
102
RTVSPropertyOp21
 70
     1
102
RTVSPropertyOp22
 70
     1
102
RTVSPropertyOp23
 70
     1
102
RTVSPropertyOp24
 70
     1
102
RTVSPropertyOp25
 70
     1
102
RTVSPropertyOp26
 70
     1
102
RTVSPropertyOp27
 70
     1
102
RTVSPropertyOp28
 70
     1
102
RTVSPropertyOp29
 70
     1
102
RTVSPropertyOp30
 70
     1
102
RTVSPropertyOp31
 70
     1
102
RTVSPropertyOp32
 70
     1
102
RTVSPropertyOp33
 70
     1
102
RTVSPropertyOp34
 70
     1
102
RTVSPropertyOp35
 70
     1
102
RTVSPropertyOp36
 70
     1
102
RTVSPropertyOp37
 70
     1
102
RTVSPropertyOp38
 70
     1
102
RTVSPropertyOp39
 70
     1
102
RTVSPropertyOp40
 70
     1
102
RTVSPropertyOp41
 70
     1
102
RTVSPropertyOp42
 70
     1
102
RTVSPropertyOp43
 70
     1
102
RTVSPropertyOp44
 70
     1
102
RTVSPropertyOp45
 70
     1
102
RTVSPropertyOp46
 70
     1
102
RTVSPropertyOp47
 70
     1
102
RTVSPropertyOp48
 70
     1
102
RTVSPropertyOp49
 70
     1
102
RTVSPropertyOp50
 70
     1
102
RTVSPropertyOp51
 70
     0
102
RTVSPropertyOp52
 70
     0
102
RTVSPropertyOp53
 70
     1
102
RTVSPropertyOp54
 70
     1
102
RTVSPropertyOp55
 70
     1
102
RTVSPropertyOp56
 70
     1
102
RTVSPropertyOp57
 70
     1
102
RTVSPost2010Prop28
280
     0
102
RTVSPost2010PropOp28
 70
     1
102
RTVSPost2010Prop29
280
     1
102
RTVSPost2010PropOp29
 70
     1
102
RTVSPost2010Prop30
280
     1
102
RTVSPost2010PropOp30
 70
     1
102
RTVSPost2010Prop31
280
     0
102
RTVSPost2010PropOp31
 70
     1
102
RTVSPost2010Prop32
280
     0
102
RTVSPost2010PropOp32
 70
     1
102
RTVSPost2010Prop33
280
     0
102
RTVSPost2010PropOp33
 70
     1
102
RTVSPost2010Prop34
280
     0
102
RTVSPost2010PropOp34
 70
     1
102
RTVSPost2010Prop35
280
     0
102
RTVSPost2010PropOp35
 70
     1
102
RTVSPost2010Prop36
280
     0
102
RTVSPost2010PropOp36
 70
     1
102
RTVSPost2010Prop37
 90
       50
102
RTVSPost2010PropOp37
 70
     1
102
RTVSPost2010Prop38
140
0.0
102
RTVSPost2010PropOp38
 70
     1
102
RTVSPost2010Prop39
140
1.0
102
RTVSPost2010PropOp39
 70
     1
102
RTVSPost2010Prop40
 90
        0
102
RTVSPost2010PropOp40
 70
     1
102
RTVSPost2010Prop41ColorIndex
 90
       18
102
RTVSPost2010Prop41ColorRGB
 90
        0
102
RTVSPost2010PropOp41
 70
     1
102
RTVSPost2010Prop42
 90
       50
102
RTVSPost2010PropOp42
 70
     1
102
RTVSPost2010Prop43
 90
        3
102
RTVSPost2010PropOp43
 70
     1
102
RTVSPost2010Prop44ColorIndex
 90
        5
102
RTVSPost2010Prop44ColorRGB
 90
      255
102
RTVSPost2010PropOp44
 70
     1
102
RTVSPost2010Prop45
280
     0
102
RTVSPost2010PropOp45
 70
     1
102
RTVSPost2010Prop46
 90
       50
102
RTVSPost2010PropOp46
 70
     1
102
RTVSPost2010Prop47
 90
       50
102
RTVSPost2010PropOp47
 70
     1
102
RTVSPost2010Prop48
 90
       50
102
RTVSPost2010PropOp48
 70
     1
102
RTVSPost2010Prop49
280
     0
102
RTVSPost2010PropOp49
 70
     1
102
RTVSPost2010Prop50
 90
       50
102
RTVSPost2010PropOp50
 70
     1
102
RTVSPost2010Prop51ColorIndex
 90
      256
102
RTVSPost2010Prop51ColorRGB
 90
-16777216
102
RTVSPost2010PropOp51
 70
     0
102
RTVSPost2010Prop52
140
1.0
102
RTVSPost2010PropOp52
 70
     0
102
RTVSPost2010Prop53
 90
        2
102
RTVSPost2010PropOp53
 70
     1
102
RTVSPost2010Prop54
  1
strokes_ogs.tif
102
RTVSPost2010PropOp54
 70
     1
102
RTVSPost2010Prop55
280
     0
102
RTVSPost2010PropOp55
 70
     1
102
RTVSPost2010Prop56
140
1.0
102
RTVSPost2010PropOp56
 70
     1
102
RTVSPost2010Prop57
140
1.0
102
RTVSPost2010PropOp57
 70
     1
  0
XRECORD
  5
12E
102
{ACAD_REACTORS
330
12D
102
}
330
12D
100
AcDbXrecord
280
     1
102
RTVSPropertyOp0
 70
     1
102
RTVSPropertyOp1
 70
     1
102
RTVSPropertyOp2
 70
     1
102
RTVSPropertyOp3
 70
     1
102
RTVSPropertyOp4
 70
     1
102
RTVSPropertyOp5
 70
     1
102
RTVSPropertyOp6
 70
     1
102
RTVSPropertyOp7
 70
     1
102
RTVSPropertyOp8
 70
     1
102
RTVSPropertyOp9
 70
     1
102
RTVSPropertyOp10
 70
     1
102
RTVSPropertyOp11
 70
     1
102
RTVSPropertyOp12
 70
     1
102
RTVSPropertyOp13
 70
     1
102
RTVSPropertyOp14
 70
     1
102
RTVSPropertyOp15
 70
     1
102
RTVSPropertyOp16
 70
     1
102
RTVSPropertyOp17
 70
     1
102
RTVSPropertyOp18
 70
     1
102
RTVSPropertyOp19
 70
     1
102
RTVSPropertyOp20
 70
     1
102
RTVSPropertyOp21
 70
     1
102
RTVSPropertyOp22
 70
     1
102
RTVSPropertyOp23
 70
     1
102
RTVSPropertyOp24
 70
     1
102
RTVSPropertyOp25
 70
     1
102
RTVSPropertyOp26
 70
     1
102
RTVSPropertyOp27
 70
     1
102
RTVSPropertyOp28
 70
     1
102
RTVSPropertyOp29
 70
     1
102
RTVSPropertyOp30
 70
     1
102
RTVSPropertyOp31
 70
     1
102
RTVSPropertyOp32
 70
     1
102
RTVSPropertyOp33
 70
     1
102
RTVSPropertyOp34
 70
     1
102
RTVSPropertyOp35
 70
     1
102
RTVSPropertyOp36
 70
     1
102
RTVSPropertyOp37
 70
     1
102
RTVSPropertyOp38
 70
     1
102
RTVSPropertyOp39
 70
     1
102
RTVSPropertyOp40
 70
     1
102
RTVSPropertyOp41
 70
     1
102
RTVSPropertyOp42
 70
     1
102
RTVSPropertyOp43
 70
     1
102
RTVSPropertyOp44
 70
     1
102
RTVSPropertyOp45
 70
     1
102
RTVSPropertyOp46
 70
     1
102
RTVSPropertyOp47
 70
     1
102
RTVSPropertyOp48
 70
     1
102
RTVSPropertyOp49
 70
     1
102
RTVSPropertyOp50
 70
     1
102
RTVSPropertyOp51
 70
     0
102
RTVSPropertyOp52
 70
     0
102
RTVSPropertyOp53
 70
     1
102
RTVSPropertyOp54
 70
     1
102
RTVSPropertyOp55
 70
     1
102
RTVSPropertyOp56
 70
     1
102
RTVSPropertyOp57
 70
     1
102
RTVSPost2010Prop28
280
     0
102
RTVSPost2010PropOp28
 70
     1
102
RTVSPost2010Prop29
280
     1
102
RTVSPost2010PropOp29
 70
     1
102
RTVSPost2010Prop30
280
     1
102
RTVSPost2010PropOp30
 70
     1
102
RTVSPost2010Prop31
280
     0
102
RTVSPost2010PropOp31
 70
     1
102
RTVSPost2010Prop32
280
     0
102
RTVSPost2010PropOp32
 70
     1
102
RTVSPost2010Prop33
280
     0
102
RTVSPost2010PropOp33
 70
     1
102
RTVSPost2010Prop34
280
     0
102
RTVSPost2010PropOp34
 70
     1
102
RTVSPost2010Prop35
280
     0
102
RTVSPost2010PropOp35
 70
     1
102
RTVSPost2010Prop36
280
     0
102
RTVSPost2010PropOp36
 70
     1
102
RTVSPost2010Prop37
 90
       50
102
RTVSPost2010PropOp37
 70
     1
102
RTVSPost2010Prop38
140
0.0
102
RTVSPost2010PropOp38
 70
     1
102
RTVSPost2010Prop39
140
1.0
102
RTVSPost2010PropOp39
 70
     1
102
RTVSPost2010Prop40
 90
        0
102
RTVSPost2010PropOp40
 70
     1
102
RTVSPost2010Prop41ColorIndex
 90
       18
102
RTVSPost2010Prop41ColorRGB
 90
        0
102
RTVSPost2010PropOp41
 70
     1
102
RTVSPost2010Prop42
 90
       50
102
RTVSPost2010PropOp42
 70
     1
102
RTVSPost2010Prop43
 90
        3
102
RTVSPost2010PropOp43
 70
     1
102
RTVSPost2010Prop44ColorIndex
 90
        5
102
RTVSPost2010Prop44ColorRGB
 90
      255
102
RTVSPost2010PropOp44
 70
     1
102
RTVSPost2010Prop45
280
     0
102
RTVSPost2010PropOp45
 70
     1
102
RTVSPost2010Prop46
 90
       50
102
RTVSPost2010PropOp46
 70
     1
102
RTVSPost2010Prop47
 90
       50
102
RTVSPost2010PropOp47
 70
     1
102
RTVSPost2010Prop48
 90
       50
102
RTVSPost2010PropOp48
 70
     1
102
RTVSPost2010Prop49
280
     0
102
RTVSPost2010PropOp49
 70
     1
102
RTVSPost2010Prop50
 90
       50
102
RTVSPost2010PropOp50
 70
     1
102
RTVSPost2010Prop51ColorIndex
 90
      256
102
RTVSPost2010Prop51ColorRGB
 90
-16777216
102
RTVSPost2010PropOp51
 70
     0
102
RTVSPost2010Prop52
140
1.0
102
RTVSPost2010PropOp52
 70
     0
102
RTVSPost2010Prop53
 90
        2
102
RTVSPost2010PropOp53
 70
     1
102
RTVSPost2010Prop54
  1
strokes_ogs.tif
102
RTVSPost2010PropOp54
 70
     1
102
RTVSPost2010Prop55
280
     0
102
RTVSPost2010PropOp55
 70
     1
102
RTVSPost2010Prop56
140
1.0
102
RTVSPost2010PropOp56
 70
     1
102
RTVSPost2010Prop57
140
1.0
102
RTVSPost2010PropOp57
 70
     1
  0
XRECORD
  5
142
102
{ACAD_REACTORS
330
141
102
}
330
141
100
AcDbXrecord
280
     1
102
RTVSPropertyOp0
 70
     0
102
RTVSPropertyOp1
 70
     0
102
RTVSPropertyOp2
 70
     0
102
RTVSPropertyOp3
 70
     0
102
RTVSPropertyOp4
 70
     0
102
RTVSPropertyOp5
 70
     0
102
RTVSPropertyOp6
 70
     0
102
RTVSPropertyOp7
 70
     0
102
RTVSPropertyOp8
 70
     0
102
RTVSPropertyOp9
 70
     0
102
RTVSPropertyOp10
 70
     0
102
RTVSPropertyOp11
 70
     0
102
RTVSPropertyOp12
 70
     0
102
RTVSPropertyOp13
 70
     0
102
RTVSPropertyOp14
 70
     2
102
RTVSPropertyOp15
 70
     0
102
RTVSPropertyOp16
 70
     0
102
RTVSPropertyOp17
 70
     0
102
RTVSPropertyOp18
 70
     0
102
RTVSPropertyOp19
 70
     0
102
RTVSPropertyOp20
 70
     0
102
RTVSPropertyOp21
 70
     0
102
RTVSPropertyOp22
 70
     0
102
RTVSPropertyOp23
 70
     0
102
RTVSPropertyOp24
 70
     0
102
RTVSPropertyOp25
 70
     0
102
RTVSPropertyOp26
 70
     0
102
RTVSPropertyOp27
 70
     0
102
RTVSPropertyOp28
 70
     0
102
RTVSPropertyOp29
 70
     0
102
RTVSPropertyOp30
 70
     0
102
RTVSPropertyOp31
 70
     0
102
RTVSPropertyOp32
 70
     0
102
RTVSPropertyOp33
 70
     0
102
RTVSPropertyOp34
 70
     0
102
RTVSPropertyOp35
 70
     0
102
RTVSPropertyOp36
 70
     0
102
RTVSPropertyOp37
 70
     0
102
RTVSPropertyOp38
 70
     0
102
RTVSPropertyOp39
 70
     0
102
RTVSPropertyOp40
 70
     0
102
RTVSPropertyOp41
 70
     0
102
RTVSPropertyOp42
 70
     0
102
RTVSPropertyOp43
 70
     0
102
RTVSPropertyOp44
 70
     0
102
RTVSPropertyOp45
 70
     0
102
RTVSPropertyOp46
 70
     0
102
RTVSPropertyOp47
 70
     0
102
RTVSPropertyOp48
 70
     0
102
RTVSPropertyOp49
 70
     0
102
RTVSPropertyOp50
 70
     0
102
RTVSPropertyOp51
 70
     0
102
RTVSPropertyOp52
 70
     0
102
RTVSPropertyOp53
 70
     0
102
RTVSPropertyOp54
 70
     0
102
RTVSPropertyOp55
 70
     0
102
RTVSPropertyOp56
 70
     0
102
RTVSPropertyOp57
 70
     0
102
RTVSPost2010Prop28
280
     0
102
RTVSPost2010PropOp28
 70
     0
102
RTVSPost2010Prop29
280
     1
102
RTVSPost2010PropOp29
 70
     0
102
RTVSPost2010Prop30
280
     1
102
RTVSPost2010PropOp30
 70
     0
102
RTVSPost2010Prop31
280
     0
102
RTVSPost2010PropOp31
 70
     0
102
RTVSPost2010Prop32
280
     0
102
RTVSPost2010PropOp32
 70
     0
102
RTVSPost2010Prop33
280
     0
102
RTVSPost2010PropOp33
 70
     0
102
RTVSPost2010Prop34
280
     0
102
RTVSPost2010PropOp34
 70
     0
102
RTVSPost2010Prop35
280
     0
102
RTVSPost2010PropOp35
 70
     0
102
RTVSPost2010Prop36
280
     0
102
RTVSPost2010PropOp36
 70
     0
102
RTVSPost2010Prop37
 90
       50
102
RTVSPost2010PropOp37
 70
     0
102
RTVSPost2010Prop38
140
0.0
102
RTVSPost2010PropOp38
 70
     0
102
RTVSPost2010Prop39
140
1.0
102
RTVSPost2010PropOp39
 70
     0
102
RTVSPost2010Prop40
 90
        0
102
RTVSPost2010PropOp40
 70
     0
102
RTVSPost2010Prop41ColorIndex
 90
       18
102
RTVSPost2010Prop41ColorRGB
 90
        0
102
RTVSPost2010PropOp41
 70
     0
102
RTVSPost2010Prop42
 90
       50
102
RTVSPost2010PropOp42
 70
     0
102
RTVSPost2010Prop43
 90
        3
102
RTVSPost2010PropOp43
 70
     0
102
RTVSPost2010Prop44ColorIndex
 90
        5
102
RTVSPost2010Prop44ColorRGB
 90
      255
102
RTVSPost2010PropOp44
 70
     0
102
RTVSPost2010Prop45
280
     0
102
RTVSPost2010PropOp45
 70
     0
102
RTVSPost2010Prop46
 90
       50
102
RTVSPost2010PropOp46
 70
     0
102
RTVSPost2010Prop47
 90
       50
102
RTVSPost2010PropOp47
 70
     0
102
RTVSPost2010Prop48
 90
       50
102
RTVSPost2010PropOp48
 70
     0
102
RTVSPost2010Prop49
280
     0
102
RTVSPost2010PropOp49
 70
     0
102
RTVSPost2010Prop50
 90
       50
102
RTVSPost2010PropOp50
 70
     0
102
RTVSPost2010Prop51ColorIndex
 90
      256
102
RTVSPost2010Prop51ColorRGB
 90
-16777216
102
RTVSPost2010PropOp51
 70
     0
102
RTVSPost2010Prop52
140
1.0
102
RTVSPost2010PropOp52
 70
     0
102
RTVSPost2010Prop53
 90
        2
102
RTVSPost2010PropOp53
 70
     0
102
RTVSPost2010Prop54
  1
strokes_ogs.tif
102
RTVSPost2010PropOp54
 70
     0
102
RTVSPost2010Prop55
280
     0
102
RTVSPost2010PropOp55
 70
     0
102
RTVSPost2010Prop56
140
1.0
102
RTVSPost2010PropOp56
 70
     0
102
RTVSPost2010Prop57
140
1.0
102
RTVSPost2010PropOp57
 70
     0
  0
XRECORD
  5
13C
102
{ACAD_REACTORS
330
13B
102
}
330
13B
100
AcDbXrecord
280
     1
102
RTVSPropertyOp0
 70
     1
102
RTVSPropertyOp1
 70
     1
102
RTVSPropertyOp2
 70
     1
102
RTVSPropertyOp3
 70
     1
102
RTVSPropertyOp4
 70
     1
102
RTVSPropertyOp5
 70
     1
102
RTVSPropertyOp6
 70
     1
102
RTVSPropertyOp7
 70
     1
102
RTVSPropertyOp8
 70
     1
102
RTVSPropertyOp9
 70
     1
102
RTVSPropertyOp10
 70
     1
102
RTVSPropertyOp11
 70
     1
102
RTVSPropertyOp12
 70
     1
102
RTVSPropertyOp13
 70
     1
102
RTVSPropertyOp14
 70
     1
102
RTVSPropertyOp15
 70
     1
102
RTVSPropertyOp16
 70
     1
102
RTVSPropertyOp17
 70
     1
102
RTVSPropertyOp18
 70
     1
102
RTVSPropertyOp19
 70
     1
102
RTVSPropertyOp20
 70
     1
102
RTVSPropertyOp21
 70
     1
102
RTVSPropertyOp22
 70
     1
102
RTVSPropertyOp23
 70
     1
102
RTVSPropertyOp24
 70
     1
102
RTVSPropertyOp25
 70
     1
102
RTVSPropertyOp26
 70
     1
102
RTVSPropertyOp27
 70
     1
102
RTVSPropertyOp28
 70
     1
102
RTVSPropertyOp29
 70
     1
102
RTVSPropertyOp30
 70
     1
102
RTVSPropertyOp31
 70
     1
102
RTVSPropertyOp32
 70
     1
102
RTVSPropertyOp33
 70
     1
102
RTVSPropertyOp34
 70
     1
102
RTVSPropertyOp35
 70
     1
102
RTVSPropertyOp36
 70
     1
102
RTVSPropertyOp37
 70
     1
102
RTVSPropertyOp38
 70
     1
102
RTVSPropertyOp39
 70
     1
102
RTVSPropertyOp40
 70
     1
102
RTVSPropertyOp41
 70
     1
102
RTVSPropertyOp42
 70
     1
102
RTVSPropertyOp43
 70
     1
102
RTVSPropertyOp44
 70
     1
102
RTVSPropertyOp45
 70
     1
102
RTVSPropertyOp46
 70
     1
102
RTVSPropertyOp47
 70
     1
102
RTVSPropertyOp48
 70
     1
102
RTVSPropertyOp49
 70
     1
102
RTVSPropertyOp50
 70
     1
102
RTVSPropertyOp51
 70
     0
102
RTVSPropertyOp52
 70
     0
102
RTVSPropertyOp53
 70
     1
102
RTVSPropertyOp54
 70
     1
102
RTVSPropertyOp55
 70
     1
102
RTVSPropertyOp56
 70
     1
102
RTVSPropertyOp57
 70
     1
102
RTVSPost2010Prop28
280
     0
102
RTVSPost2010PropOp28
 70
     1
102
RTVSPost2010Prop29
280
     1
102
RTVSPost2010PropOp29
 70
     1
102
RTVSPost2010Prop30
280
     1
102
RTVSPost2010PropOp30
 70
     1
102
RTVSPost2010Prop31
280
     0
102
RTVSPost2010PropOp31
 70
     1
102
RTVSPost2010Prop32
280
     0
102
RTVSPost2010PropOp32
 70
     1
102
RTVSPost2010Prop33
280
     0
102
RTVSPost2010PropOp33
 70
     1
102
RTVSPost2010Prop34
280
     0
102
RTVSPost2010PropOp34
 70
     1
102
RTVSPost2010Prop35
280
     0
102
RTVSPost2010PropOp35
 70
     1
102
RTVSPost2010Prop36
280
     0
102
RTVSPost2010PropOp36
 70
     1
102
RTVSPost2010Prop37
 90
       50
102
RTVSPost2010PropOp37
 70
     1
102
RTVSPost2010Prop38
140
0.0
102
RTVSPost2010PropOp38
 70
     1
102
RTVSPost2010Prop39
140
1.0
102
RTVSPost2010PropOp39
 70
     1
102
RTVSPost2010Prop40
 90
        0
102
RTVSPost2010PropOp40
 70
     1
102
RTVSPost2010Prop41ColorIndex
 90
       18
102
RTVSPost2010Prop41ColorRGB
 90
        0
102
RTVSPost2010PropOp41
 70
     1
102
RTVSPost2010Prop42
 90
       50
102
RTVSPost2010PropOp42
 70
     1
102
RTVSPost2010Prop43
 90
        3
102
RTVSPost2010PropOp43
 70
     1
102
RTVSPost2010Prop44ColorIndex
 90
        5
102
RTVSPost2010Prop44ColorRGB
 90
      255
102
RTVSPost2010PropOp44
 70
     1
102
RTVSPost2010Prop45
280
     0
102
RTVSPost2010PropOp45
 70
     1
102
RTVSPost2010Prop46
 90
       50
102
RTVSPost2010PropOp46
 70
     1
102
RTVSPost2010Prop47
 90
       50
102
RTVSPost2010PropOp47
 70
     1
102
RTVSPost2010Prop48
 90
       50
102
RTVSPost2010PropOp48
 70
     1
102
RTVSPost2010Prop49
280
     0
102
RTVSPost2010PropOp49
 70
     1
102
RTVSPost2010Prop50
 90
       50
102
RTVSPost2010PropOp50
 70
     1
102
RTVSPost2010Prop51ColorIndex
 90
      256
102
RTVSPost2010Prop51ColorRGB
 90
-16777216
102
RTVSPost2010PropOp51
 70
     0
102
RTVSPost2010Prop52
140
1.0
102
RTVSPost2010PropOp52
 70
     0
102
RTVSPost2010Prop53
 90
        2
102
RTVSPost2010PropOp53
 70
     1
102
RTVSPost2010Prop54
  1
strokes_ogs.tif
102
RTVSPost2010PropOp54
 70
     1
102
RTVSPost2010Prop55
280
     0
102
RTVSPost2010PropOp55
 70
     1
102
RTVSPost2010Prop56
140
1.0
102
RTVSPost2010PropOp56
 70
     1
102
RTVSPost2010Prop57
140
1.0
102
RTVSPost2010PropOp57
 70
     1
  0
XRECORD
  5
144
102
{ACAD_REACTORS
330
143
102
}
330
143
100
AcDbXrecord
280
     1
102
RTVSPropertyOp0
 70
     0
102
RTVSPropertyOp1
 70
     0
102
RTVSPropertyOp2
 70
     0
102
RTVSPropertyOp3
 70
     0
102
RTVSPropertyOp4
 70
     0
102
RTVSPropertyOp5
 70
     0
102
RTVSPropertyOp6
 70
     0
102
RTVSPropertyOp7
 70
     0
102
RTVSPropertyOp8
 70
     0
102
RTVSPropertyOp9
 70
     0
102
RTVSPropertyOp10
 70
     0
102
RTVSPropertyOp11
 70
     0
102
RTVSPropertyOp12
 70
     0
102
RTVSPropertyOp13
 70
     0
102
RTVSPropertyOp14
 70
     2
102
RTVSPropertyOp15
 70
     0
102
RTVSPropertyOp16
 70
     0
102
RTVSPropertyOp17
 70
     0
102
RTVSPropertyOp18
 70
     0
102
RTVSPropertyOp19
 70
     0
102
RTVSPropertyOp20
 70
     0
102
RTVSPropertyOp21
 70
     0
102
RTVSPropertyOp22
 70
     0
102
RTVSPropertyOp23
 70
     0
102
RTVSPropertyOp24
 70
     0
102
RTVSPropertyOp25
 70
     0
102
RTVSPropertyOp26
 70
     0
102
RTVSPropertyOp27
 70
     0
102
RTVSPropertyOp28
 70
     0
102
RTVSPropertyOp29
 70
     0
102
RTVSPropertyOp30
 70
     0
102
RTVSPropertyOp31
 70
     0
102
RTVSPropertyOp32
 70
     0
102
RTVSPropertyOp33
 70
     0
102
RTVSPropertyOp34
 70
     0
102
RTVSPropertyOp35
 70
     0
102
RTVSPropertyOp36
 70
     0
102
RTVSPropertyOp37
 70
     0
102
RTVSPropertyOp38
 70
     0
102
RTVSPropertyOp39
 70
     0
102
RTVSPropertyOp40
 70
     0
102
RTVSPropertyOp41
 70
     0
102
RTVSPropertyOp42
 70
     0
102
RTVSPropertyOp43
 70
     0
102
RTVSPropertyOp44
 70
     0
102
RTVSPropertyOp45
 70
     0
102
RTVSPropertyOp46
 70
     0
102
RTVSPropertyOp47
 70
     0
102
RTVSPropertyOp48
 70
     0
102
RTVSPropertyOp49
 70
     0
102
RTVSPropertyOp50
 70
     0
102
RTVSPropertyOp51
 70
     0
102
RTVSPropertyOp52
 70
     0
102
RTVSPropertyOp53
 70
     0
102
RTVSPropertyOp54
 70
     0
102
RTVSPropertyOp55
 70
     0
102
RTVSPropertyOp56
 70
     0
102
RTVSPropertyOp57
 70
     0
102
RTVSPost2010Prop28
280
     0
102
RTVSPost2010PropOp28
 70
     0
102
RTVSPost2010Prop29
280
     1
102
RTVSPost2010PropOp29
 70
     0
102
RTVSPost2010Prop30
280
     1
102
RTVSPost2010PropOp30
 70
     0
102
RTVSPost2010Prop31
280
     0
102
RTVSPost2010PropOp31
 70
     0
102
RTVSPost2010Prop32
280
     0
102
RTVSPost2010PropOp32
 70
     0
102
RTVSPost2010Prop33
280
     0
102
RTVSPost2010PropOp33
 70
     0
102
RTVSPost2010Prop34
280
     0
102
RTVSPost2010PropOp34
 70
     0
102
RTVSPost2010Prop35
280
     0
102
RTVSPost2010PropOp35
 70
     0
102
RTVSPost2010Prop36
280
     0
102
RTVSPost2010PropOp36
 70
     0
102
RTVSPost2010Prop37
 90
       50
102
RTVSPost2010PropOp37
 70
     0
102
RTVSPost2010Prop38
140
0.0
102
RTVSPost2010PropOp38
 70
     0
102
RTVSPost2010Prop39
140
1.0
102
RTVSPost2010PropOp39
 70
     0
102
RTVSPost2010Prop40
 90
        0
102
RTVSPost2010PropOp40
 70
     0
102
RTVSPost2010Prop41ColorIndex
 90
       18
102
RTVSPost2010Prop41ColorRGB
 90
        0
102
RTVSPost2010PropOp41
 70
     0
102
RTVSPost2010Prop42
 90
       50
102
RTVSPost2010PropOp42
 70
     0
102
RTVSPost2010Prop43
 90
        3
102
RTVSPost2010PropOp43
 70
     0
102
RTVSPost2010Prop44ColorIndex
 90
        5
102
RTVSPost2010Prop44ColorRGB
 90
      255
102
RTVSPost2010PropOp44
 70
     0
102
RTVSPost2010Prop45
280
     0
102
RTVSPost2010PropOp45
 70
     0
102
RTVSPost2010Prop46
 90
       50
102
RTVSPost2010PropOp46
 70
     0
102
RTVSPost2010Prop47
 90
       50
102
RTVSPost2010PropOp47
 70
     0
102
RTVSPost2010Prop48
 90
       50
102
RTVSPost2010PropOp48
 70
     0
102
RTVSPost2010Prop49
280
     0
102
RTVSPost2010PropOp49
 70
     0
102
RTVSPost2010Prop50
 90
       50
102
RTVSPost2010PropOp50
 70
     0
102
RTVSPost2010Prop51ColorIndex
 90
      256
102
RTVSPost2010Prop51ColorRGB
 90
-16777216
102
RTVSPost2010PropOp51
 70
     0
102
RTVSPost2010Prop52
140
1.0
102
RTVSPost2010PropOp52
 70
     0
102
RTVSPost2010Prop53
 90
        2
102
RTVSPost2010PropOp53
 70
     0
102
RTVSPost2010Prop54
  1
strokes_ogs.tif
102
RTVSPost2010PropOp54
 70
     0
102
RTVSPost2010Prop55
280
     0
102
RTVSPost2010PropOp55
 70
     0
102
RTVSPost2010Prop56
140
1.0
102
RTVSPost2010PropOp56
 70
     0
102
RTVSPost2010Prop57
140
1.0
102
RTVSPost2010PropOp57
 70
     0
  0
XRECORD
  5
132
102
{ACAD_REACTORS
330
131
102
}
330
131
100
AcDbXrecord
280
     1
102
RTVSPropertyOp0
 70
     1
102
RTVSPropertyOp1
 70
     1
102
RTVSPropertyOp2
 70
     1
102
RTVSPropertyOp3
 70
     1
102
RTVSPropertyOp4
 70
     1
102
RTVSPropertyOp5
 70
     1
102
RTVSPropertyOp6
 70
     1
102
RTVSPropertyOp7
 70
     1
102
RTVSPropertyOp8
 70
     1
102
RTVSPropertyOp9
 70
     1
102
RTVSPropertyOp10
 70
     1
102
RTVSPropertyOp11
 70
     1
102
RTVSPropertyOp12
 70
     1
102
RTVSPropertyOp13
 70
     1
102
RTVSPropertyOp14
 70
     1
102
RTVSPropertyOp15
 70
     1
102
RTVSPropertyOp16
 70
     1
102
RTVSPropertyOp17
 70
     1
102
RTVSPropertyOp18
 70
     1
102
RTVSPropertyOp19
 70
     1
102
RTVSPropertyOp20
 70
     1
102
RTVSPropertyOp21
 70
     1
102
RTVSPropertyOp22
 70
     1
102
RTVSPropertyOp23
 70
     1
102
RTVSPropertyOp24
 70
     1
102
RTVSPropertyOp25
 70
     1
102
RTVSPropertyOp26
 70
     1
102
RTVSPropertyOp27
 70
     1
102
RTVSPropertyOp28
 70
     1
102
RTVSPropertyOp29
 70
     1
102
RTVSPropertyOp30
 70
     1
102
RTVSPropertyOp31
 70
     1
102
RTVSPropertyOp32
 70
     1
102
RTVSPropertyOp33
 70
     1
102
RTVSPropertyOp34
 70
     1
102
RTVSPropertyOp35
 70
     1
102
RTVSPropertyOp36
 70
     1
102
RTVSPropertyOp37
 70
     1
102
RTVSPropertyOp38
 70
     1
102
RTVSPropertyOp39
 70
     1
102
RTVSPropertyOp40
 70
     1
102
RTVSPropertyOp41
 70
     1
102
RTVSPropertyOp42
 70
     1
102
RTVSPropertyOp43
 70
     1
102
RTVSPropertyOp44
 70
     1
102
RTVSPropertyOp45
 70
     1
102
RTVSPropertyOp46
 70
     1
102
RTVSPropertyOp47
 70
     1
102
RTVSPropertyOp48
 70
     1
102
RTVSPropertyOp49
 70
     1
102
RTVSPropertyOp50
 70
     1
102
RTVSPropertyOp51
 70
     0
102
RTVSPropertyOp52
 70
     0
102
RTVSPropertyOp53
 70
     1
102
RTVSPropertyOp54
 70
     1
102
RTVSPropertyOp55
 70
     1
102
RTVSPropertyOp56
 70
     1
102
RTVSPropertyOp57
 70
     1
102
RTVSPost2010Prop28
280
     0
102
RTVSPost2010PropOp28
 70
     1
102
RTVSPost2010Prop29
280
     1
102
RTVSPost2010PropOp29
 70
     1
102
RTVSPost2010Prop30
280
     1
102
RTVSPost2010PropOp30
 70
     1
102
RTVSPost2010Prop31
280
     0
102
RTVSPost2010PropOp31
 70
     1
102
RTVSPost2010Prop32
280
     0
102
RTVSPost2010PropOp32
 70
     1
102
RTVSPost2010Prop33
280
     0
102
RTVSPost2010PropOp33
 70
     1
102
RTVSPost2010Prop34
280
     0
102
RTVSPost2010PropOp34
 70
     1
102
RTVSPost2010Prop35
280
     0
102
RTVSPost2010PropOp35
 70
     1
102
RTVSPost2010Prop36
280
     0
102
RTVSPost2010PropOp36
 70
     1
102
RTVSPost2010Prop37
 90
       50
102
RTVSPost2010PropOp37
 70
     1
102
RTVSPost2010Prop38
140
0.0
102
RTVSPost2010PropOp38
 70
     1
102
RTVSPost2010Prop39
140
1.0
102
RTVSPost2010PropOp39
 70
     1
102
RTVSPost2010Prop40
 90
        0
102
RTVSPost2010PropOp40
 70
     1
102
RTVSPost2010Prop41ColorIndex
 90
       18
102
RTVSPost2010Prop41ColorRGB
 90
        0
102
RTVSPost2010PropOp41
 70
     1
102
RTVSPost2010Prop42
 90
       50
102
RTVSPost2010PropOp42
 70
     1
102
RTVSPost2010Prop43
 90
        3
102
RTVSPost2010PropOp43
 70
     1
102
RTVSPost2010Prop44ColorIndex
 90
        5
102
RTVSPost2010Prop44ColorRGB
 90
      255
102
RTVSPost2010PropOp44
 70
     1
102
RTVSPost2010Prop45
280
     0
102
RTVSPost2010PropOp45
 70
     1
102
RTVSPost2010Prop46
 90
       50
102
RTVSPost2010PropOp46
 70
     1
102
RTVSPost2010Prop47
 90
       50
102
RTVSPost2010PropOp47
 70
     1
102
RTVSPost2010Prop48
 90
       50
102
RTVSPost2010PropOp48
 70
     1
102
RTVSPost2010Prop49
280
     0
102
RTVSPost2010PropOp49
 70
     1
102
RTVSPost2010Prop50
 90
       50
102
RTVSPost2010PropOp50
 70
     1
102
RTVSPost2010Prop51ColorIndex
 90
      256
102
RTVSPost2010Prop51ColorRGB
 90
-16777216
102
RTVSPost2010PropOp51
 70
     0
102
RTVSPost2010Prop52
140
1.0
102
RTVSPost2010PropOp52
 70
     0
102
RTVSPost2010Prop53
 90
        2
102
RTVSPost2010PropOp53
 70
     1
102
RTVSPost2010Prop54
  1
strokes_ogs.tif
102
RTVSPost2010PropOp54
 70
     1
102
RTVSPost2010Prop55
280
     0
102
RTVSPost2010PropOp55
 70
     1
102
RTVSPost2010Prop56
140
1.0
102
RTVSPost2010PropOp56
 70
     1
102
RTVSPost2010Prop57
140
1.0
102
RTVSPost2010PropOp57
 70
     1
  0
XRECORD
  5
150
102
{ACAD_REACTORS
330
14F
102
}
330
14F
100
AcDbXrecord
280
     1
102
RTVSPropertyOp0
 70
     1
102
RTVSPropertyOp1
 70
     1
102
RTVSPropertyOp2
 70
     1
102
RTVSPropertyOp3
 70
     1
102
RTVSPropertyOp4
 70
     1
102
RTVSPropertyOp5
 70
     1
102
RTVSPropertyOp6
 70
     1
102
RTVSPropertyOp7
 70
     1
102
RTVSPropertyOp8
 70
     1
102
RTVSPropertyOp9
 70
     1
102
RTVSPropertyOp10
 70
     1
102
RTVSPropertyOp11
 70
     1
102
RTVSPropertyOp12
 70
     1
102
RTVSPropertyOp13
 70
     1
102
RTVSPropertyOp14
 70
     1
102
RTVSPropertyOp15
 70
     1
102
RTVSPropertyOp16
 70
     1
102
RTVSPropertyOp17
 70
     1
102
RTVSPropertyOp18
 70
     1
102
RTVSPropertyOp19
 70
     1
102
RTVSPropertyOp20
 70
     1
102
RTVSPropertyOp21
 70
     1
102
RTVSPropertyOp22
 70
     1
102
RTVSPropertyOp23
 70
     1
102
RTVSPropertyOp24
 70
     1
102
RTVSPropertyOp25
 70
     1
102
RTVSPropertyOp26
 70
     1
102
RTVSPropertyOp27
 70
     1
102
RTVSPropertyOp28
 70
     1
102
RTVSPropertyOp29
 70
     1
102
RTVSPropertyOp30
 70
     1
102
RTVSPropertyOp31
 70
     1
102
RTVSPropertyOp32
 70
     1
102
RTVSPropertyOp33
 70
     1
102
RTVSPropertyOp34
 70
     1
102
RTVSPropertyOp35
 70
     1
102
RTVSPropertyOp36
 70
     1
102
RTVSPropertyOp37
 70
     1
102
RTVSPropertyOp38
 70
     1
102
RTVSPropertyOp39
 70
     1
102
RTVSPropertyOp40
 70
     1
102
RTVSPropertyOp41
 70
     1
102
RTVSPropertyOp42
 70
     1
102
RTVSPropertyOp43
 70
     1
102
RTVSPropertyOp44
 70
     1
102
RTVSPropertyOp45
 70
     1
102
RTVSPropertyOp46
 70
     1
102
RTVSPropertyOp47
 70
     1
102
RTVSPropertyOp48
 70
     1
102
RTVSPropertyOp49
 70
     1
102
RTVSPropertyOp50
 70
     1
102
RTVSPropertyOp51
 70
     0
102
RTVSPropertyOp52
 70
     0
102
RTVSPropertyOp53
 70
     1
102
RTVSPropertyOp54
 70
     1
102
RTVSPropertyOp55
 70
     1
102
RTVSPropertyOp56
 70
     1
102
RTVSPropertyOp57
 70
     1
102
RTVSPost2010Prop28
280
     0
102
RTVSPost2010PropOp28
 70
     1
102
RTVSPost2010Prop29
280
     1
102
RTVSPost2010PropOp29
 70
     1
102
RTVSPost2010Prop30
280
     1
102
RTVSPost2010PropOp30
 70
     1
102
RTVSPost2010Prop31
280
     0
102
RTVSPost2010PropOp31
 70
     1
102
RTVSPost2010Prop32
280
     0
102
RTVSPost2010PropOp32
 70
     1
102
RTVSPost2010Prop33
280
     0
102
RTVSPost2010PropOp33
 70
     1
102
RTVSPost2010Prop34
280
     0
102
RTVSPost2010PropOp34
 70
     1
102
RTVSPost2010Prop35
280
     0
102
RTVSPost2010PropOp35
 70
     1
102
RTVSPost2010Prop36
280
     0
102
RTVSPost2010PropOp36
 70
     1
102
RTVSPost2010Prop37
 90
       50
102
RTVSPost2010PropOp37
 70
     1
102
RTVSPost2010Prop38
140
0.0
102
RTVSPost2010PropOp38
 70
     1
102
RTVSPost2010Prop39
140
1.0
102
RTVSPost2010PropOp39
 70
     1
102
RTVSPost2010Prop40
 90
        0
102
RTVSPost2010PropOp40
 70
     1
102
RTVSPost2010Prop41ColorIndex
 90
       18
102
RTVSPost2010Prop41ColorRGB
 90
        0
102
RTVSPost2010PropOp41
 70
     1
102
RTVSPost2010Prop42
 90
       50
102
RTVSPost2010PropOp42
 70
     1
102
RTVSPost2010Prop43
 90
        3
102
RTVSPost2010PropOp43
 70
     1
102
RTVSPost2010Prop44ColorIndex
 90
        5
102
RTVSPost2010Prop44ColorRGB
 90
      255
102
RTVSPost2010PropOp44
 70
     1
102
RTVSPost2010Prop45
280
     0
102
RTVSPost2010PropOp45
 70
     1
102
RTVSPost2010Prop46
 90
       50
102
RTVSPost2010PropOp46
 70
     1
102
RTVSPost2010Prop47
 90
       50
102
RTVSPost2010PropOp47
 70
     1
102
RTVSPost2010Prop48
 90
       50
102
RTVSPost2010PropOp48
 70
     1
102
RTVSPost2010Prop49
280
     0
102
RTVSPost2010PropOp49
 70
     1
102
RTVSPost2010Prop50
 90
       50
102
RTVSPost2010PropOp50
 70
     1
102
RTVSPost2010Prop51ColorIndex
 90
      256
102
RTVSPost2010Prop51ColorRGB
 90
-16777216
102
RTVSPost2010PropOp51
 70
     0
102
RTVSPost2010Prop52
140
1.0
102
RTVSPost2010PropOp52
 70
     0
102
RTVSPost2010Prop53
 90
        2
102
RTVSPost2010PropOp53
 70
     1
102
RTVSPost2010Prop54
  1
strokes_ogs.tif
102
RTVSPost2010PropOp54
 70
     1
102
RTVSPost2010Prop55
280
     0
102
RTVSPost2010PropOp55
 70
     1
102
RTVSPost2010Prop56
140
1.0
102
RTVSPost2010PropOp56
 70
     1
102
RTVSPost2010Prop57
140
1.0
102
RTVSPost2010PropOp57
 70
     1
  0
XRECORD
  5
14E
102
{ACAD_REACTORS
330
14D
102
}
330
14D
100
AcDbXrecord
280
     1
102
RTVSPropertyOp0
 70
     1
102
RTVSPropertyOp1
 70
     1
102
RTVSPropertyOp2
 70
     1
102
RTVSPropertyOp3
 70
     1
102
RTVSPropertyOp4
 70
     1
102
RTVSPropertyOp5
 70
     1
102
RTVSPropertyOp6
 70
     1
102
RTVSPropertyOp7
 70
     1
102
RTVSPropertyOp8
 70
     1
102
RTVSPropertyOp9
 70
     1
102
RTVSPropertyOp10
 70
     1
102
RTVSPropertyOp11
 70
     1
102
RTVSPropertyOp12
 70
     1
102
RTVSPropertyOp13
 70
     1
102
RTVSPropertyOp14
 70
     1
102
RTVSPropertyOp15
 70
     1
102
RTVSPropertyOp16
 70
     1
102
RTVSPropertyOp17
 70
     1
102
RTVSPropertyOp18
 70
     1
102
RTVSPropertyOp19
 70
     1
102
RTVSPropertyOp20
 70
     1
102
RTVSPropertyOp21
 70
     1
102
RTVSPropertyOp22
 70
     1
102
RTVSPropertyOp23
 70
     1
102
RTVSPropertyOp24
 70
     1
102
RTVSPropertyOp25
 70
     1
102
RTVSPropertyOp26
 70
     1
102
RTVSPropertyOp27
 70
     1
102
RTVSPropertyOp28
 70
     1
102
RTVSPropertyOp29
 70
     1
102
RTVSPropertyOp30
 70
     1
102
RTVSPropertyOp31
 70
     1
102
RTVSPropertyOp32
 70
     1
102
RTVSPropertyOp33
 70
     1
102
RTVSPropertyOp34
 70
     1
102
RTVSPropertyOp35
 70
     1
102
RTVSPropertyOp36
 70
     1
102
RTVSPropertyOp37
 70
     1
102
RTVSPropertyOp38
 70
     1
102
RTVSPropertyOp39
 70
     1
102
RTVSPropertyOp40
 70
     1
102
RTVSPropertyOp41
 70
     1
102
RTVSPropertyOp42
 70
     1
102
RTVSPropertyOp43
 70
     1
102
RTVSPropertyOp44
 70
     1
102
RTVSPropertyOp45
 70
     1
102
RTVSPropertyOp46
 70
     1
102
RTVSPropertyOp47
 70
     1
102
RTVSPropertyOp48
 70
     1
102
RTVSPropertyOp49
 70
     1
102
RTVSPropertyOp50
 70
     1
102
RTVSPropertyOp51
 70
     0
102
RTVSPropertyOp52
 70
     0
102
RTVSPropertyOp53
 70
     1
102
RTVSPropertyOp54
 70
     1
102
RTVSPropertyOp55
 70
     1
102
RTVSPropertyOp56
 70
     1
102
RTVSPropertyOp57
 70
     1
102
RTVSPost2010Prop28
280
     0
102
RTVSPost2010PropOp28
 70
     1
102
RTVSPost2010Prop29
280
     1
102
RTVSPost2010PropOp29
 70
     1
102
RTVSPost2010Prop30
280
     1
102
RTVSPost2010PropOp30
 70
     1
102
RTVSPost2010Prop31
280
     0
102
RTVSPost2010PropOp31
 70
     1
102
RTVSPost2010Prop32
280
     0
102
RTVSPost2010PropOp32
 70
     1
102
RTVSPost2010Prop33
280
     0
102
RTVSPost2010PropOp33
 70
     1
102
RTVSPost2010Prop34
280
     0
102
RTVSPost2010PropOp34
 70
     1
102
RTVSPost2010Prop35
280
     0
102
RTVSPost2010PropOp35
 70
     1
102
RTVSPost2010Prop36
280
     0
102
RTVSPost2010PropOp36
 70
     1
102
RTVSPost2010Prop37
 90
       50
102
RTVSPost2010PropOp37
 70
     1
102
RTVSPost2010Prop38
140
0.0
102
RTVSPost2010PropOp38
 70
     1
102
RTVSPost2010Prop39
140
1.0
102
RTVSPost2010PropOp39
 70
     1
102
RTVSPost2010Prop40
 90
        0
102
RTVSPost2010PropOp40
 70
     1
102
RTVSPost2010Prop41ColorIndex
 90
       18
102
RTVSPost2010Prop41ColorRGB
 90
        0
102
RTVSPost2010PropOp41
 70
     1
102
RTVSPost2010Prop42
 90
       50
102
RTVSPost2010PropOp42
 70
     1
102
RTVSPost2010Prop43
 90
        3
102
RTVSPost2010PropOp43
 70
     1
102
RTVSPost2010Prop44ColorIndex
 90
        5
102
RTVSPost2010Prop44ColorRGB
 90
      255
102
RTVSPost2010PropOp44
 70
     1
102
RTVSPost2010Prop45
280
     0
102
RTVSPost2010PropOp45
 70
     1
102
RTVSPost2010Prop46
 90
       50
102
RTVSPost2010PropOp46
 70
     1
102
RTVSPost2010Prop47
 90
       50
102
RTVSPost2010PropOp47
 70
     1
102
RTVSPost2010Prop48
 90
       50
102
RTVSPost2010PropOp48
 70
     1
102
RTVSPost2010Prop49
280
     0
102
RTVSPost2010PropOp49
 70
     1
102
RTVSPost2010Prop50
 90
       50
102
RTVSPost2010PropOp50
 70
     1
102
RTVSPost2010Prop51ColorIndex
 90
      256
102
RTVSPost2010Prop51ColorRGB
 90
-16777216
102
RTVSPost2010PropOp51
 70
     0
102
RTVSPost2010Prop52
140
1.0
102
RTVSPost2010PropOp52
 70
     0
102
RTVSPost2010Prop53
 90
        2
102
RTVSPost2010PropOp53
 70
     1
102
RTVSPost2010Prop54
  1
strokes_ogs.tif
102
RTVSPost2010PropOp54
 70
     1
102
RTVSPost2010Prop55
280
     0
102
RTVSPost2010PropOp55
 70
     1
102
RTVSPost2010Prop56
140
1.0
102
RTVSPost2010PropOp56
 70
     1
102
RTVSPost2010Prop57
140
1.0
102
RTVSPost2010PropOp57
 70
     1
  0
XRECORD
  5
148
102
{ACAD_REACTORS
330
147
102
}
330
147
100
AcDbXrecord
280
     1
102
RTVSPropertyOp0
 70
     1
102
RTVSPropertyOp1
 70
     1
102
RTVSPropertyOp2
 70
     1
102
RTVSPropertyOp3
 70
     1
102
RTVSPropertyOp4
 70
     1
102
RTVSPropertyOp5
 70
     1
102
RTVSPropertyOp6
 70
     1
102
RTVSPropertyOp7
 70
     1
102
RTVSPropertyOp8
 70
     1
102
RTVSPropertyOp9
 70
     1
102
RTVSPropertyOp10
 70
     1
102
RTVSPropertyOp11
 70
     1
102
RTVSPropertyOp12
 70
     1
102
RTVSPropertyOp13
 70
     1
102
RTVSPropertyOp14
 70
     1
102
RTVSPropertyOp15
 70
     1
102
RTVSPropertyOp16
 70
     1
102
RTVSPropertyOp17
 70
     1
102
RTVSPropertyOp18
 70
     1
102
RTVSPropertyOp19
 70
     1
102
RTVSPropertyOp20
 70
     1
102
RTVSPropertyOp21
 70
     1
102
RTVSPropertyOp22
 70
     1
102
RTVSPropertyOp23
 70
     1
102
RTVSPropertyOp24
 70
     1
102
RTVSPropertyOp25
 70
     1
102
RTVSPropertyOp26
 70
     1
102
RTVSPropertyOp27
 70
     1
102
RTVSPropertyOp28
 70
     1
102
RTVSPropertyOp29
 70
     1
102
RTVSPropertyOp30
 70
     1
102
RTVSPropertyOp31
 70
     1
102
RTVSPropertyOp32
 70
     1
102
RTVSPropertyOp33
 70
     1
102
RTVSPropertyOp34
 70
     1
102
RTVSPropertyOp35
 70
     1
102
RTVSPropertyOp36
 70
     1
102
RTVSPropertyOp37
 70
     1
102
RTVSPropertyOp38
 70
     1
102
RTVSPropertyOp39
 70
     1
102
RTVSPropertyOp40
 70
     1
102
RTVSPropertyOp41
 70
     1
102
RTVSPropertyOp42
 70
     1
102
RTVSPropertyOp43
 70
     1
102
RTVSPropertyOp44
 70
     1
102
RTVSPropertyOp45
 70
     1
102
RTVSPropertyOp46
 70
     1
102
RTVSPropertyOp47
 70
     1
102
RTVSPropertyOp48
 70
     1
102
RTVSPropertyOp49
 70
     1
102
RTVSPropertyOp50
 70
     1
102
RTVSPropertyOp51
 70
     0
102
RTVSPropertyOp52
 70
     0
102
RTVSPropertyOp53
 70
     1
102
RTVSPropertyOp54
 70
     1
102
RTVSPropertyOp55
 70
     1
102
RTVSPropertyOp56
 70
     1
102
RTVSPropertyOp57
 70
     1
102
RTVSPost2010Prop28
280
     0
102
RTVSPost2010PropOp28
 70
     1
102
RTVSPost2010Prop29
280
     1
102
RTVSPost2010PropOp29
 70
     1
102
RTVSPost2010Prop30
280
     1
102
RTVSPost2010PropOp30
 70
     1
102
RTVSPost2010Prop31
280
     0
102
RTVSPost2010PropOp31
 70
     1
102
RTVSPost2010Prop32
280
     0
102
RTVSPost2010PropOp32
 70
     1
102
RTVSPost2010Prop33
280
     0
102
RTVSPost2010PropOp33
 70
     1
102
RTVSPost2010Prop34
280
     0
102
RTVSPost2010PropOp34
 70
     1
102
RTVSPost2010Prop35
280
     0
102
RTVSPost2010PropOp35
 70
     1
102
RTVSPost2010Prop36
280
     0
102
RTVSPost2010PropOp36
 70
     1
102
RTVSPost2010Prop37
 90
       50
102
RTVSPost2010PropOp37
 70
     1
102
RTVSPost2010Prop38
140
0.0
102
RTVSPost2010PropOp38
 70
     1
102
RTVSPost2010Prop39
140
1.0
102
RTVSPost2010PropOp39
 70
     1
102
RTVSPost2010Prop40
 90
        0
102
RTVSPost2010PropOp40
 70
     1
102
RTVSPost2010Prop41ColorIndex
 90
       18
102
RTVSPost2010Prop41ColorRGB
 90
        0
102
RTVSPost2010PropOp41
 70
     1
102
RTVSPost2010Prop42
 90
       50
102
RTVSPost2010PropOp42
 70
     1
102
RTVSPost2010Prop43
 90
        3
102
RTVSPost2010PropOp43
 70
     1
102
RTVSPost2010Prop44ColorIndex
 90
        5
102
RTVSPost2010Prop44ColorRGB
 90
      255
102
RTVSPost2010PropOp44
 70
     1
102
RTVSPost2010Prop45
280
     0
102
RTVSPost2010PropOp45
 70
     1
102
RTVSPost2010Prop46
 90
       50
102
RTVSPost2010PropOp46
 70
     1
102
RTVSPost2010Prop47
 90
       50
102
RTVSPost2010PropOp47
 70
     1
102
RTVSPost2010Prop48
 90
       50
102
RTVSPost2010PropOp48
 70
     1
102
RTVSPost2010Prop49
280
     0
102
RTVSPost2010PropOp49
 70
     1
102
RTVSPost2010Prop50
 90
       50
102
RTVSPost2010PropOp50
 70
     1
102
RTVSPost2010Prop51ColorIndex
 90
      256
102
RTVSPost2010Prop51ColorRGB
 90
-16777216
102
RTVSPost2010PropOp51
 70
     0
102
RTVSPost2010Prop52
140
1.0
102
RTVSPost2010PropOp52
 70
     0
102
RTVSPost2010Prop53
 90
        2
102
RTVSPost2010PropOp53
 70
     1
102
RTVSPost2010Prop54
  1
strokes_ogs.tif
102
RTVSPost2010PropOp54
 70
     1
102
RTVSPost2010Prop55
280
     0
102
RTVSPost2010PropOp55
 70
     1
102
RTVSPost2010Prop56
140
1.0
102
RTVSPost2010PropOp56
 70
     1
102
RTVSPost2010Prop57
140
1.0
102
RTVSPost2010PropOp57
 70
     1
  0
XRECORD
  5
14A
102
{ACAD_REACTORS
330
149
102
}
330
149
100
AcDbXrecord
280
     1
102
RTVSPropertyOp0
 70
     1
102
RTVSPropertyOp1
 70
     1
102
RTVSPropertyOp2
 70
     1
102
RTVSPropertyOp3
 70
     1
102
RTVSPropertyOp4
 70
     1
102
RTVSPropertyOp5
 70
     1
102
RTVSPropertyOp6
 70
     1
102
RTVSPropertyOp7
 70
     1
102
RTVSPropertyOp8
 70
     1
102
RTVSPropertyOp9
 70
     1
102
RTVSPropertyOp10
 70
     1
102
RTVSPropertyOp11
 70
     1
102
RTVSPropertyOp12
 70
     1
102
RTVSPropertyOp13
 70
     1
102
RTVSPropertyOp14
 70
     1
102
RTVSPropertyOp15
 70
     1
102
RTVSPropertyOp16
 70
     1
102
RTVSPropertyOp17
 70
     1
102
RTVSPropertyOp18
 70
     1
102
RTVSPropertyOp19
 70
     1
102
RTVSPropertyOp20
 70
     1
102
RTVSPropertyOp21
 70
     1
102
RTVSPropertyOp22
 70
     1
102
RTVSPropertyOp23
 70
     1
102
RTVSPropertyOp24
 70
     1
102
RTVSPropertyOp25
 70
     1
102
RTVSPropertyOp26
 70
     1
102
RTVSPropertyOp27
 70
     1
102
RTVSPropertyOp28
 70
     1
102
RTVSPropertyOp29
 70
     1
102
RTVSPropertyOp30
 70
     1
102
RTVSPropertyOp31
 70
     1
102
RTVSPropertyOp32
 70
     1
102
RTVSPropertyOp33
 70
     1
102
RTVSPropertyOp34
 70
     1
102
RTVSPropertyOp35
 70
     1
102
RTVSPropertyOp36
 70
     1
102
RTVSPropertyOp37
 70
     1
102
RTVSPropertyOp38
 70
     1
102
RTVSPropertyOp39
 70
     1
102
RTVSPropertyOp40
 70
     1
102
RTVSPropertyOp41
 70
     1
102
RTVSPropertyOp42
 70
     1
102
RTVSPropertyOp43
 70
     1
102
RTVSPropertyOp44
 70
     1
102
RTVSPropertyOp45
 70
     1
102
RTVSPropertyOp46
 70
     1
102
RTVSPropertyOp47
 70
     1
102
RTVSPropertyOp48
 70
     1
102
RTVSPropertyOp49
 70
     1
102
RTVSPropertyOp50
 70
     1
102
RTVSPropertyOp51
 70
     0
102
RTVSPropertyOp52
 70
     0
102
RTVSPropertyOp53
 70
     1
102
RTVSPropertyOp54
 70
     1
102
RTVSPropertyOp55
 70
     1
102
RTVSPropertyOp56
 70
     1
102
RTVSPropertyOp57
 70
     1
102
RTVSPost2010Prop28
280
     0
102
RTVSPost2010PropOp28
 70
     1
102
RTVSPost2010Prop29
280
     1
102
RTVSPost2010PropOp29
 70
     1
102
RTVSPost2010Prop30
280
     1
102
RTVSPost2010PropOp30
 70
     1
102
RTVSPost2010Prop31
280
     0
102
RTVSPost2010PropOp31
 70
     1
102
RTVSPost2010Prop32
280
     0
102
RTVSPost2010PropOp32
 70
     1
102
RTVSPost2010Prop33
280
     0
102
RTVSPost2010PropOp33
 70
     1
102
RTVSPost2010Prop34
280
     0
102
RTVSPost2010PropOp34
 70
     1
102
RTVSPost2010Prop35
280
     0
102
RTVSPost2010PropOp35
 70
     1
102
RTVSPost2010Prop36
280
     0
102
RTVSPost2010PropOp36
 70
     1
102
RTVSPost2010Prop37
 90
       50
102
RTVSPost2010PropOp37
 70
     1
102
RTVSPost2010Prop38
140
0.0
102
RTVSPost2010PropOp38
 70
     1
102
RTVSPost2010Prop39
140
1.0
102
RTVSPost2010PropOp39
 70
     1
102
RTVSPost2010Prop40
 90
        0
102
RTVSPost2010PropOp40
 70
     1
102
RTVSPost2010Prop41ColorIndex
 90
       18
102
RTVSPost2010Prop41ColorRGB
 90
        0
102
RTVSPost2010PropOp41
 70
     1
102
RTVSPost2010Prop42
 90
       50
102
RTVSPost2010PropOp42
 70
     1
102
RTVSPost2010Prop43
 90
        3
102
RTVSPost2010PropOp43
 70
     1
102
RTVSPost2010Prop44ColorIndex
 90
        5
102
RTVSPost2010Prop44ColorRGB
 90
      255
102
RTVSPost2010PropOp44
 70
     1
102
RTVSPost2010Prop45
280
     0
102
RTVSPost2010PropOp45
 70
     1
102
RTVSPost2010Prop46
 90
       50
102
RTVSPost2010PropOp46
 70
     1
102
RTVSPost2010Prop47
 90
       50
102
RTVSPost2010PropOp47
 70
     1
102
RTVSPost2010Prop48
 90
       50
102
RTVSPost2010PropOp48
 70
     1
102
RTVSPost2010Prop49
280
     0
102
RTVSPost2010PropOp49
 70
     1
102
RTVSPost2010Prop50
 90
       50
102
RTVSPost2010PropOp50
 70
     1
102
RTVSPost2010Prop51ColorIndex
 90
      256
102
RTVSPost2010Prop51ColorRGB
 90
-16777216
102
RTVSPost2010PropOp51
 70
     0
102
RTVSPost2010Prop52
140
1.0
102
RTVSPost2010PropOp52
 70
     0
102
RTVSPost2010Prop53
 90
        2
102
RTVSPost2010PropOp53
 70
     1
102
RTVSPost2010Prop54
  1
strokes_ogs.tif
102
RTVSPost2010PropOp54
 70
     1
102
RTVSPost2010Prop55
280
     0
102
RTVSPost2010PropOp55
 70
     1
102
RTVSPost2010Prop56
140
1.0
102
RTVSPost2010PropOp56
 70
     1
102
RTVSPost2010Prop57
140
1.0
102
RTVSPost2010PropOp57
 70
     1
  0
XRECORD
  5
13A
102
{ACAD_REACTORS
330
139
102
}
330
139
100
AcDbXrecord
280
     1
102
RTVSPropertyOp0
 70
     1
102
RTVSPropertyOp1
 70
     1
102
RTVSPropertyOp2
 70
     1
102
RTVSPropertyOp3
 70
     1
102
RTVSPropertyOp4
 70
     1
102
RTVSPropertyOp5
 70
     1
102
RTVSPropertyOp6
 70
     1
102
RTVSPropertyOp7
 70
     1
102
RTVSPropertyOp8
 70
     1
102
RTVSPropertyOp9
 70
     1
102
RTVSPropertyOp10
 70
     1
102
RTVSPropertyOp11
 70
     1
102
RTVSPropertyOp12
 70
     1
102
RTVSPropertyOp13
 70
     1
102
RTVSPropertyOp14
 70
     1
102
RTVSPropertyOp15
 70
     1
102
RTVSPropertyOp16
 70
     1
102
RTVSPropertyOp17
 70
     1
102
RTVSPropertyOp18
 70
     1
102
RTVSPropertyOp19
 70
     1
102
RTVSPropertyOp20
 70
     1
102
RTVSPropertyOp21
 70
     1
102
RTVSPropertyOp22
 70
     1
102
RTVSPropertyOp23
 70
     1
102
RTVSPropertyOp24
 70
     1
102
RTVSPropertyOp25
 70
     1
102
RTVSPropertyOp26
 70
     1
102
RTVSPropertyOp27
 70
     1
102
RTVSPropertyOp28
 70
     1
102
RTVSPropertyOp29
 70
     1
102
RTVSPropertyOp30
 70
     1
102
RTVSPropertyOp31
 70
     1
102
RTVSPropertyOp32
 70
     1
102
RTVSPropertyOp33
 70
     1
102
RTVSPropertyOp34
 70
     1
102
RTVSPropertyOp35
 70
     1
102
RTVSPropertyOp36
 70
     1
102
RTVSPropertyOp37
 70
     1
102
RTVSPropertyOp38
 70
     1
102
RTVSPropertyOp39
 70
     1
102
RTVSPropertyOp40
 70
     1
102
RTVSPropertyOp41
 70
     1
102
RTVSPropertyOp42
 70
     1
102
RTVSPropertyOp43
 70
     1
102
RTVSPropertyOp44
 70
     1
102
RTVSPropertyOp45
 70
     1
102
RTVSPropertyOp46
 70
     1
102
RTVSPropertyOp47
 70
     1
102
RTVSPropertyOp48
 70
     1
102
RTVSPropertyOp49
 70
     1
102
RTVSPropertyOp50
 70
     1
102
RTVSPropertyOp51
 70
     0
102
RTVSPropertyOp52
 70
     0
102
RTVSPropertyOp53
 70
     1
102
RTVSPropertyOp54
 70
     1
102
RTVSPropertyOp55
 70
     1
102
RTVSPropertyOp56
 70
     1
102
RTVSPropertyOp57
 70
     1
102
RTVSPost2010Prop28
280
     0
102
RTVSPost2010PropOp28
 70
     1
102
RTVSPost2010Prop29
280
     1
102
RTVSPost2010PropOp29
 70
     1
102
RTVSPost2010Prop30
280
     1
102
RTVSPost2010PropOp30
 70
     1
102
RTVSPost2010Prop31
280
     0
102
RTVSPost2010PropOp31
 70
     1
102
RTVSPost2010Prop32
280
     0
102
RTVSPost2010PropOp32
 70
     1
102
RTVSPost2010Prop33
280
     0
102
RTVSPost2010PropOp33
 70
     1
102
RTVSPost2010Prop34
280
     0
102
RTVSPost2010PropOp34
 70
     1
102
RTVSPost2010Prop35
280
     0
102
RTVSPost2010PropOp35
 70
     1
102
RTVSPost2010Prop36
280
     0
102
RTVSPost2010PropOp36
 70
     1
102
RTVSPost2010Prop37
 90
       50
102
RTVSPost2010PropOp37
 70
     1
102
RTVSPost2010Prop38
140
0.0
102
RTVSPost2010PropOp38
 70
     1
102
RTVSPost2010Prop39
140
1.0
102
RTVSPost2010PropOp39
 70
     1
102
RTVSPost2010Prop40
 90
        0
102
RTVSPost2010PropOp40
 70
     1
102
RTVSPost2010Prop41ColorIndex
 90
       18
102
RTVSPost2010Prop41ColorRGB
 90
        0
102
RTVSPost2010PropOp41
 70
     1
102
RTVSPost2010Prop42
 90
       50
102
RTVSPost2010PropOp42
 70
     1
102
RTVSPost2010Prop43
 90
        3
102
RTVSPost2010PropOp43
 70
     1
102
RTVSPost2010Prop44ColorIndex
 90
        5
102
RTVSPost2010Prop44ColorRGB
 90
      255
102
RTVSPost2010PropOp44
 70
     1
102
RTVSPost2010Prop45
280
     0
102
RTVSPost2010PropOp45
 70
     1
102
RTVSPost2010Prop46
 90
       50
102
RTVSPost2010PropOp46
 70
     1
102
RTVSPost2010Prop47
 90
       50
102
RTVSPost2010PropOp47
 70
     1
102
RTVSPost2010Prop48
 90
       50
102
RTVSPost2010PropOp48
 70
     1
102
RTVSPost2010Prop49
280
     0
102
RTVSPost2010PropOp49
 70
     1
102
RTVSPost2010Prop50
 90
       50
102
RTVSPost2010PropOp50
 70
     1
102
RTVSPost2010Prop51ColorIndex
 90
      256
102
RTVSPost2010Prop51ColorRGB
 90
-16777216
102
RTVSPost2010PropOp51
 70
     0
102
RTVSPost2010Prop52
140
1.0
102
RTVSPost2010PropOp52
 70
     0
102
RTVSPost2010Prop53
 90
        2
102
RTVSPost2010PropOp53
 70
     1
102
RTVSPost2010Prop54
  1
strokes_ogs.tif
102
RTVSPost2010PropOp54
 70
     1
102
RTVSPost2010Prop55
280
     0
102
RTVSPost2010PropOp55
 70
     1
102
RTVSPost2010Prop56
140
1.0
102
RTVSPost2010PropOp56
 70
     1
102
RTVSPost2010Prop57
140
1.0
102
RTVSPost2010PropOp57
 70
     1
  0
XRECORD
  5
12C
102
{ACAD_REACTORS
330
12B
102
}
330
12B
100
AcDbXrecord
280
     1
102
RTVSPropertyOp0
 70
     1
102
RTVSPropertyOp1
 70
     1
102
RTVSPropertyOp2
 70
     1
102
RTVSPropertyOp3
 70
     1
102
RTVSPropertyOp4
 70
     1
102
RTVSPropertyOp5
 70
     1
102
RTVSPropertyOp6
 70
     1
102
RTVSPropertyOp7
 70
     1
102
RTVSPropertyOp8
 70
     1
102
RTVSPropertyOp9
 70
     1
102
RTVSPropertyOp10
 70
     1
102
RTVSPropertyOp11
 70
     1
102
RTVSPropertyOp12
 70
     1
102
RTVSPropertyOp13
 70
     1
102
RTVSPropertyOp14
 70
     1
102
RTVSPropertyOp15
 70
     1
102
RTVSPropertyOp16
 70
     1
102
RTVSPropertyOp17
 70
     1
102
RTVSPropertyOp18
 70
     1
102
RTVSPropertyOp19
 70
     1
102
RTVSPropertyOp20
 70
     1
102
RTVSPropertyOp21
 70
     1
102
RTVSPropertyOp22
 70
     1
102
RTVSPropertyOp23
 70
     1
102
RTVSPropertyOp24
 70
     1
102
RTVSPropertyOp25
 70
     1
102
RTVSPropertyOp26
 70
     1
102
RTVSPropertyOp27
 70
     1
102
RTVSPropertyOp28
 70
     1
102
RTVSPropertyOp29
 70
     1
102
RTVSPropertyOp30
 70
     1
102
RTVSPropertyOp31
 70
     1
102
RTVSPropertyOp32
 70
     1
102
RTVSPropertyOp33
 70
     1
102
RTVSPropertyOp34
 70
     1
102
RTVSPropertyOp35
 70
     1
102
RTVSPropertyOp36
 70
     1
102
RTVSPropertyOp37
 70
     1
102
RTVSPropertyOp38
 70
     1
102
RTVSPropertyOp39
 70
     1
102
RTVSPropertyOp40
 70
     1
102
RTVSPropertyOp41
 70
     1
102
RTVSPropertyOp42
 70
     1
102
RTVSPropertyOp43
 70
     1
102
RTVSPropertyOp44
 70
     1
102
RTVSPropertyOp45
 70
     1
102
RTVSPropertyOp46
 70
     1
102
RTVSPropertyOp47
 70
     1
102
RTVSPropertyOp48
 70
     1
102
RTVSPropertyOp49
 70
     1
102
RTVSPropertyOp50
 70
     1
102
RTVSPropertyOp51
 70
     0
102
RTVSPropertyOp52
 70
     0
102
RTVSPropertyOp53
 70
     1
102
RTVSPropertyOp54
 70
     1
102
RTVSPropertyOp55
 70
     1
102
RTVSPropertyOp56
 70
     1
102
RTVSPropertyOp57
 70
     1
102
RTVSPost2010Prop28
280
     0
102
RTVSPost2010PropOp28
 70
     1
102
RTVSPost2010Prop29
280
     1
102
RTVSPost2010PropOp29
 70
     1
102
RTVSPost2010Prop30
280
     1
102
RTVSPost2010PropOp30
 70
     1
102
RTVSPost2010Prop31
280
     0
102
RTVSPost2010PropOp31
 70
     1
102
RTVSPost2010Prop32
280
     0
102
RTVSPost2010PropOp32
 70
     1
102
RTVSPost2010Prop33
280
     0
102
RTVSPost2010PropOp33
 70
     1
102
RTVSPost2010Prop34
280
     0
102
RTVSPost2010PropOp34
 70
     1
102
RTVSPost2010Prop35
280
     0
102
RTVSPost2010PropOp35
 70
     1
102
RTVSPost2010Prop36
280
     0
102
RTVSPost2010PropOp36
 70
     1
102
RTVSPost2010Prop37
 90
       50
102
RTVSPost2010PropOp37
 70
     1
102
RTVSPost2010Prop38
140
0.0
102
RTVSPost2010PropOp38
 70
     1
102
RTVSPost2010Prop39
140
1.0
102
RTVSPost2010PropOp39
 70
     1
102
RTVSPost2010Prop40
 90
        0
102
RTVSPost2010PropOp40
 70
     1
102
RTVSPost2010Prop41ColorIndex
 90
       18
102
RTVSPost2010Prop41ColorRGB
 90
        0
102
RTVSPost2010PropOp41
 70
     1
102
RTVSPost2010Prop42
 90
       50
102
RTVSPost2010PropOp42
 70
     1
102
RTVSPost2010Prop43
 90
        3
102
RTVSPost2010PropOp43
 70
     1
102
RTVSPost2010Prop44ColorIndex
 90
        5
102
RTVSPost2010Prop44ColorRGB
 90
      255
102
RTVSPost2010PropOp44
 70
     1
102
RTVSPost2010Prop45
280
     0
102
RTVSPost2010PropOp45
 70
     1
102
RTVSPost2010Prop46
 90
       50
102
RTVSPost2010PropOp46
 70
     1
102
RTVSPost2010Prop47
 90
       50
102
RTVSPost2010PropOp47
 70
     1
102
RTVSPost2010Prop48
 90
       50
102
RTVSPost2010PropOp48
 70
     1
102
RTVSPost2010Prop49
280
     0
102
RTVSPost2010PropOp49
 70
     1
102
RTVSPost2010Prop50
 90
       50
102
RTVSPost2010PropOp50
 70
     1
102
RTVSPost2010Prop51ColorIndex
 90
      256
102
RTVSPost2010Prop51ColorRGB
 90
-16777216
102
RTVSPost2010PropOp51
 70
     0
102
RTVSPost2010Prop52
140
1.0
102
RTVSPost2010PropOp52
 70
     0
102
RTVSPost2010Prop53
 90
        2
102
RTVSPost2010PropOp53
 70
     1
102
RTVSPost2010Prop54
  1
strokes_ogs.tif
102
RTVSPost2010PropOp54
 70
     1
102
RTVSPost2010Prop55
280
     0
102
RTVSPost2010PropOp55
 70
     1
102
RTVSPost2010Prop56
140
1.0
102
RTVSPost2010PropOp56
 70
     1
102
RTVSPost2010Prop57
140
1.0
102
RTVSPost2010PropOp57
 70
     1
  0
XRECORD
  5
14C
102
{ACAD_REACTORS
330
14B
102
}
330
14B
100
AcDbXrecord
280
     1
102
RTVSPropertyOp0
 70
     1
102
RTVSPropertyOp1
 70
     1
102
RTVSPropertyOp2
 70
     1
102
RTVSPropertyOp3
 70
     1
102
RTVSPropertyOp4
 70
     1
102
RTVSPropertyOp5
 70
     1
102
RTVSPropertyOp6
 70
     1
102
RTVSPropertyOp7
 70
     1
102
RTVSPropertyOp8
 70
     1
102
RTVSPropertyOp9
 70
     1
102
RTVSPropertyOp10
 70
     1
102
RTVSPropertyOp11
 70
     1
102
RTVSPropertyOp12
 70
     1
102
RTVSPropertyOp13
 70
     1
102
RTVSPropertyOp14
 70
     1
102
RTVSPropertyOp15
 70
     1
102
RTVSPropertyOp16
 70
     1
102
RTVSPropertyOp17
 70
     1
102
RTVSPropertyOp18
 70
     1
102
RTVSPropertyOp19
 70
     1
102
RTVSPropertyOp20
 70
     1
102
RTVSPropertyOp21
 70
     1
102
RTVSPropertyOp22
 70
     1
102
RTVSPropertyOp23
 70
     1
102
RTVSPropertyOp24
 70
     1
102
RTVSPropertyOp25
 70
     1
102
RTVSPropertyOp26
 70
     1
102
RTVSPropertyOp27
 70
     1
102
RTVSPropertyOp28
 70
     1
102
RTVSPropertyOp29
 70
     1
102
RTVSPropertyOp30
 70
     1
102
RTVSPropertyOp31
 70
     1
102
RTVSPropertyOp32
 70
     1
102
RTVSPropertyOp33
 70
     1
102
RTVSPropertyOp34
 70
     1
102
RTVSPropertyOp35
 70
     1
102
RTVSPropertyOp36
 70
     1
102
RTVSPropertyOp37
 70
     1
102
RTVSPropertyOp38
 70
     1
102
RTVSPropertyOp39
 70
     1
102
RTVSPropertyOp40
 70
     1
102
RTVSPropertyOp41
 70
     1
102
RTVSPropertyOp42
 70
     1
102
RTVSPropertyOp43
 70
     1
102
RTVSPropertyOp44
 70
     1
102
RTVSPropertyOp45
 70
     1
102
RTVSPropertyOp46
 70
     1
102
RTVSPropertyOp47
 70
     1
102
RTVSPropertyOp48
 70
     1
102
RTVSPropertyOp49
 70
     1
102
RTVSPropertyOp50
 70
     1
102
RTVSPropertyOp51
 70
     0
102
RTVSPropertyOp52
 70
     0
102
RTVSPropertyOp53
 70
     1
102
RTVSPropertyOp54
 70
     1
102
RTVSPropertyOp55
 70
     1
102
RTVSPropertyOp56
 70
     1
102
RTVSPropertyOp57
 70
     1
102
RTVSPost2010Prop28
280
     0
102
RTVSPost2010PropOp28
 70
     1
102
RTVSPost2010Prop29
280
     1
102
RTVSPost2010PropOp29
 70
     1
102
RTVSPost2010Prop30
280
     1
102
RTVSPost2010PropOp30
 70
     1
102
RTVSPost2010Prop31
280
     0
102
RTVSPost2010PropOp31
 70
     1
102
RTVSPost2010Prop32
280
     0
102
RTVSPost2010PropOp32
 70
     1
102
RTVSPost2010Prop33
280
     0
102
RTVSPost2010PropOp33
 70
     1
102
RTVSPost2010Prop34
280
     0
102
RTVSPost2010PropOp34
 70
     1
102
RTVSPost2010Prop35
280
     0
102
RTVSPost2010PropOp35
 70
     1
102
RTVSPost2010Prop36
280
     0
102
RTVSPost2010PropOp36
 70
     1
102
RTVSPost2010Prop37
 90
       50
102
RTVSPost2010PropOp37
 70
     1
102
RTVSPost2010Prop38
140
0.0
102
RTVSPost2010PropOp38
 70
     1
102
RTVSPost2010Prop39
140
1.0
102
RTVSPost2010PropOp39
 70
     1
102
RTVSPost2010Prop40
 90
        0
102
RTVSPost2010PropOp40
 70
     1
102
RTVSPost2010Prop41ColorIndex
 90
       18
102
RTVSPost2010Prop41ColorRGB
 90
        0
102
RTVSPost2010PropOp41
 70
     1
102
RTVSPost2010Prop42
 90
       50
102
RTVSPost2010PropOp42
 70
     1
102
RTVSPost2010Prop43
 90
        3
102
RTVSPost2010PropOp43
 70
     1
102
RTVSPost2010Prop44ColorIndex
 90
        5
102
RTVSPost2010Prop44ColorRGB
 90
      255
102
RTVSPost2010PropOp44
 70
     1
102
RTVSPost2010Prop45
280
     0
102
RTVSPost2010PropOp45
 70
     1
102
RTVSPost2010Prop46
 90
       50
102
RTVSPost2010PropOp46
 70
     1
102
RTVSPost2010Prop47
 90
       50
102
RTVSPost2010PropOp47
 70
     1
102
RTVSPost2010Prop48
 90
       50
102
RTVSPost2010PropOp48
 70
     1
102
RTVSPost2010Prop49
280
     0
102
RTVSPost2010PropOp49
 70
     1
102
RTVSPost2010Prop50
 90
       50
102
RTVSPost2010PropOp50
 70
     1
102
RTVSPost2010Prop51ColorIndex
 90
      256
102
RTVSPost2010Prop51ColorRGB
 90
-16777216
102
RTVSPost2010PropOp51
 70
     0
102
RTVSPost2010Prop52
140
1.0
102
RTVSPost2010PropOp52
 70
     0
102
RTVSPost2010Prop53
 90
        2
102
RTVSPost2010PropOp53
 70
     1
102
RTVSPost2010Prop54
  1
strokes_ogs.tif
102
RTVSPost2010PropOp54
 70
     1
102
RTVSPost2010Prop55
280
     0
102
RTVSPost2010PropOp55
 70
     1
102
RTVSPost2010Prop56
140
1.0
102
RTVSPost2010PropOp56
 70
     1
102
RTVSPost2010Prop57
140
1.0
102
RTVSPost2010PropOp57
 70
     1
  0
ENDSEC
  0
EOF
